Cifra Club

Aprenda

No Olimpo

Nação Zumbi

Cifra: Principal (violão e guitarra)
Tom: D
Obs.: todas as notas com pestana (à partir da primeira corda fica melhor... mas à partir da 
segunda também fica bom).

e|-------------------------------------------------------------|
B|-------------------------------------------------10----------|
G|--------11--9-----------------------11--9--------------------|
D|-9--12---------12--9---9-----9--12---------12--9----12-------| 
A|---------------------9---------------------------------------|
E|-------------------------------------------------------------|

e|--------------------------------10h12b--10-------------------|
B|----------------------10--12---------------12----------------|
G|--------11--9---------------------------------10-------10----|
D|-9--12---------12--9-----------------------------12--9-------|
A|-------------------------------------------------------------|
E|-------------------------------------------------------------|

 | D Bm | D Bm | G  | F#m  ||:

Todos os dias nascem deuses
Alguns maiores e outros menores do que você
Todos os dias nascem deuses
Alguns maiores e outros menores do que você

Esse é o alvorecer de tudo que se quer ver
Sem fazer sombra na melhor hora do sol
Eternidade duradoura com sossego então
Melhor que fique assim

Todos os dias nascem deuses
Alguns maiores e outros menores do que você
Todos os dias nascem deuses
Alguns maiores e outros menores do que você

E|---10-10...-7-7...---10-10...-7-7...--10-10-7-7-10-10-7-7..........--|

 | D Bm | D Bm | G  | F#m  ||:

Essa é a janela dos outros em ação
Beijos explodem como bombas ao anoitecer
Brinquedos avançados acendendo o som
Não estaremos dormindo

Todos os dias fazem deuses
Alguns melhores e outros piores do que você
Todos os dias fazem deuses
Alguns melhores e outros piores do que você

E|---10-10...-7-7...---10-10...-7-7...--7-7-4-4-7-7-4-4..........--|
Composição de Jorge du Peixe
Colaboração e revisão:
  • Bruno
  • Rafael Demboscki
  • Vê
16.321 exibições
    • ½ Tom
    • A
    • Bb
    • B
    • C
    • Db
    • D
    • Eb
    • E
    • F
    • F#
    • G
    • Ab
  • Adicionar à lista

    0 comentários

    Mostrar mais comentários

    Conseguiu tocar?

    0 Tocaram 0 Ainda não

    Grave um vídeo tocando No Olimpo e mande pra gente!

    00:00 / 00:00
    outros vídeos desta música
    repetir qualidade Automático
    Outros vídeos desta música
    00:00 / 00:00
    Automático

    Cifra Club Pro

    Aproveite o Cifra Club com benefícios exclusivos e sem anúncios
    Cifra Club Pro
    Aproveite o Cifra Club com benefícios exclusivos e sem anúncios
    OK