Cifra Club

50 Reais - Part. Maiara e Maraísa

Naiara Azevedo

Cifra: Principal
exibições 7.881
Tom: E
Intro: C#m B F#m G#7


E|--------------------------------------------------
B|--5-5-5-4-5-5-7-5-4-5-----------------------------
G|--6-6-6-4-6-6-8-6-4-6--6--------------------------
D|---------------------------7----------------------
A|--------------------------------------------------
E|--------------------------------------------------

E|------------------------------------------------
B|--5-5-5-4-5-7-5-4-5-5-4-4-4--------------4-5----
G|--6-6-6-4-6-8-6-4-6-5--------6-6-6-4-6----------
D|------------------------------------------------
A|------------------------------------------------
E|------------------------------------------------

E|-----------------------------------------------------
B|--7-7-5-7-7-5-7-7-5-7-9-5-5-4---9---14---------------
G|-----------------------------------------------------
D|-----------------------------------------------------
A|-----------------------------------------------------
E|-----------------------------------------------------


C#m
Bonito!
A
Que bonito, hein?
E
Que cena mais linda
                          B
Será que eu estou atrapalhando o casalzinho aí

C#m
Que lixo!


E|--------------------------------------------------
B|--5-5-5-4-5-5-7-5-4-5-----------------------------
G|--6-6-6-4-6-6-8-6-4-6--6--------------------------
D|---------------------------7----------------------
A|--------------------------------------------------
E|--------------------------------------------------

                A
Cê tá de brincadeira


E|--------------------------------------------------
B|--5-5-5-4-5-5-7-5-4-5-----------------------------
G|--6-6-6-4-6-6-8-6-4-6--6--------------------------
D|---------------------------7----------------------
A|--------------------------------------------------
E|--------------------------------------------------


E                                       B
Então é aqui o seu futebol toda quarta-feira



E|--4--5--7--------------------------------------------
B|--5--7--9---------9/10-9-7-5-4/5-----------------
G|------------------------------------------------------
D|------------------------------------------------------
A|------------------------------------------------------
E|------------------------------------------------------


   A
E por acaso esse motel



E|---------------------------------------------------------------------
B|--4/5--5/7--7/9----------7--9--10---12--12--10--10--9--9-- 9p10p9----
G|---------------------------------------------------------------------
D|---------------------------------------------------------------------
A|---------------------------------------------------------------------
E|---------------------------------------------------------------------

                   B
É o mesmo que me trouxe na lua de mel
                C#m
É o mesmo que você me prometeu o céu
             A
E agora me tirou o chão

   A
E não precisa se vestir
                  B
Eu já vi tudo que eu tinha que ver aqui
       A
Que decepção
F#m                    B     B7
Um a zero pra minha intuição



E|---------------------------9------
B|--4-4-4-4--5-7-5--------7---------
G|----------------------------------
D|----------------------------------
A|----------------------------------
E|----------------------------------


(Refrão)

E
Não sei se dou na cara dela ou bato em você
B
Mas eu não vim atrapalhar sua noite de prazer
F#m                              G#m     A
E pra ajudar pagar a dama que lhe satisfaz
      B7
Toma aqui uns 50 reais


E
Não sei se dou na cara dela ou bato em você


E|--------------------------
B|-5-7-5-7-9--14--12----
G|--------------------------
D|--------------------------
A|--------------------------
E|--------------------------



B
Mas eu não vim atrapalhar sua noite de prazer



E|--------------
B|--10--9--7--
G|--------------
D|--------------
A|---------------
E|---------------


F#m                              G#m     A
E pra ajudar pagar a dama que lhe satisfaz



E|----------
B|--9--10--
G|----------
D|----------
A|----------
E|----------

      B7
Toma aqui uns 50 reais



E|--5--4------ (Repete solo)
B|---------7--
G|------------
D|------------
A|------------
E|------------


Último refrão:

Não sei se dou na cara dela...


E|-------9--7--------------9--7---------------------------
B|--5-----------5--7--9-----------10--9--7---10-9-7---
G|---------------------------------------------------------
D|----------------------------------------------------------
A|----------------------------------------------------------
E|------------------------------------------------------------


Final


E|--------------------------------------------
B|--5--7--9--14--12----12--10--9--10----------
G|--------------------------------------------
D|--------------------------------------------
A|--------------------------------------------
E|--------------------------------------------


Toma aqui os 50 reais


E|--5-5-5--4--2-------------------
B|-------------------2--2--5--5---
G|--6-6-6--4--2-------------------
D|-------------------2--2--6--6---
A|--------------------------------
E|--------------------------------
Acordes para:
    Colaboração e revisão:
    • thiago

    0 comentários

      mostrar mais comentários

      Conseguiu tocar?

      0tocaram0ainda não

      Grave um vídeo tocando 50 Reais - Part. Maiara e Maraísa e mande pra gente!

      00:00 / 00:00
      outros vídeos desta música
      repetirqualidadeautomática
      Outro vídeos desta música
        00:00 / 00:00
        automática
        OK