Cifra Club

Ele Não Merece A Gente Part. Paula Mattos

Naiara Azevedo

Cifra: Principal
exibições 23.854
Tom: F
Intro: F C Gm Bb C

E|-----------------------------------------------------------------------------------|
B|-13-13-11-11/10-10--13-13-11-11/10-10--13-13-11-11/10-8--13-13-11-11/10-8-8h10---6-|
G|-------------------------------------------------------------------------------7---|
D|-----------------------------------------------------------------------------------|
A|-----------------------------------------------------------------------------------|
E|-----------------------------------------------------------------------------------|

E|----------------------------------------------5----------|
B|-6-6-6---6-6-6---8--8--8----8--8--8----8-6-8--6----------|
G|-7-7-7---7-7-7---9--9--9----9--9--9----9-7-9--7----------|
D|-8-8-8---8-8-8---10-10-10---10-10-10--10-9-10------------|
A|---------------------------------------------------------|
E|---------------------------------------------------------|


Dm
Eu não fui a primeira
      C       Dm
Nem serei a última
   C    Dm
"Vou te contar viu"
Dm                               C
E quando eu percebi, ele tinha duas
           
Ta explicado

Gm
A mudança radical no visual
Dm                        C
Ta com três tipos de cheiro
      Bb                Gm
E deixou a barba crescer
                        A7
Tem tempo que ta me negando
                              
Nem naquela cama ta comparecendo


Bb                                         C
Muito prazer eu sou a outra e to de saco cheio
                                          Gm
Comigo aquele sem vergonha fez do mesmo jeito
                                     Bb
Também fui enganada, eu não duvido nada
                  A7
Ter mais uma no meio...

            F                   C
E ele me traiu e acabou me traindo

E eu vou pro boteco
                    
Me espera que eu to indo
Gm
Deixa ele dar vexame
               F/A     Bb
E vai chorar, ficar doente
         C                 F
Esse traste não merece a gente
Acordes para:
    Colaboração e revisão:
    • Guilherme Miranda
    • thiago

    0 comentários

      mostrar mais comentários

      Conseguiu tocar?

      3tocaram0ainda não

      Grave um vídeo tocando Ele Não Merece A Gente Part. Paula Mattos e mande pra gente!

      00:00 / 00:00
      outros vídeos desta música
      repetirqualidadeautomática
      Outro vídeos desta música
        00:00 / 00:00
        automática
        OK