Always Something There To Remind Me

Naked Eyes

Composição de: Burt Bacharach / Hal David
  Intro: 
    D         C        B         A
G:-------------------------------------------------------------
D:-------------------------------------------------------------
A:--5---------3--------2---------0------------------------------
E:-------------------------------------------------------------

  Verse:
  
  I walk along...

    D    C#    C      G     A#   D    C#    C     G
G:-----------------------------|-------------------------------
D:-----------------------------|-------------------------------
A:--5----4-----3------------1--|-5----4-----3------------------
E:--------------------3--------|------------------3------------


  Pre Chorus:

  So how can I...

   G      F#        E
G:-------------------------------------------------------------
D:-------------------------------------------------------------
A:-------------------------------------------------------------
E:-3------2---------0------------------------------------------


  Chorus:

  Always something there...

   D
G:-------------------------------------------------------------
D:-------------------------------------------------------------
A:-5-----------------------------------------------------------
E:-------------------------------------------------------------

  Bridge:

   F#         B          B          G           A

G:--------------------4----------4-----------------------------
D:---------4--------4----------4-------------2-----------------
A:-------4----2---5------2---5---------2---5----0--------------
E:-2---5----------------------------3--------------------------

-repeat verse, pre chorus, chorus and bridge as needed-


Transcribed by Christopher Funicelli
Comments or suggestions, please email me at *
Página 1 / 1

Letras e título
Acordes e artista

resetar configurações
OK