Cifra Club

Aprenda

Deus É Fiel

Nani Azevedo

Cifra: Versão 6 (violão e guitarra)
tom: G
(intro)
                C  D  G              C D Em
E|---------------------------------------------------|
B|--------3--------------------3---------------------|
G|--4--5-----------------4--5------------------------|
D|---------------------------------------------------|
A|---------------------------------------------------|
E|---------------------------------------------------|

                C  D  G              C D G    CG
E|---------------------------------------------------|
B|--------3--------------------3---------------------|
G|--4--5-----------------4--5------------------------|
D|---------------------------------------------------|
A|---------------------------------------------------|
E|---------------------------------------------------|

G              D             Em           C           G
Sim, Deus é fiel para cumprir  Toda palavra dita a mim
         D            Em (D D D D9 D)
Deus é fiel, Deus é fiel
G            D               Em           C            G
Sim, Deus é fiel para cumprir  Toda promessa feita a mim
         D            G
Deus é fiel, Deus é fiel

D                                         G
Eu não morrerei enquanto o Senhor não cumprir em mim
D                                 Em
Todos os sonhos que Ele mesmo sonhou pra mim

E|------------------------------------------------------|
B|------------------------------------------------------|
G|------------------------------------------------------|
D|------------------------------------------------------|
A|-----0--2--3------------------------------------------|
E|--3---------------------------------------------------|
        C                       G
Eu quero viver em santidade e adoração
D                                   G
Pois é só Dele, somente Dele o meu coração

   D                                       G
Tu não morrerás enquanto o Senhor não cumprir em ti
D                                 Em
Todos os sonhos que Ele mesmo sonhou pra ti
  C                            G
Então viverás em santidade e adoração
D                                   G
Pois é só Dele, somente Dele o teu coração
D                                   G
Pois é só Dele, somente Dele o teu coração

                C  D  G              C D Em
E|---------------------------------------------------|
B|--------3--------------------3---------------------|
G|--4--5-----------------4--5------------------------|
D|---------------------------------------------------|
A|---------------------------------------------------|
E|---------------------------------------------------|

                C  D  G              C D G    C G
E|---------------------------------------------------|
B|--------3--------------------3---------------------|
G|--4--5-----------------4--5------------------------|
D|---------------------------------------------------|
A|---------------------------------------------------|
E|---------------------------------------------------|
Composição de Nani Azevedo
Colaboração e revisão:
  • Jhemison Borges
  • Gilyard Santos
  • igor calixto
1.962 exibições
    • ½ Tom
    • A
    • Bb
    • B
    • C
    • Db
    • D
    • Eb
    • E
    • F
    • F#
    • G
    • Ab
  • Adicionar à lista

    0 comentários

    Ver todos os comentários
    00:00 / 00:00
    outros vídeos desta música
    repetir qualidade Automático
    Outros vídeos desta música
    00:00 / 00:00
    Automático

    Cifra Club Pro

    Aproveite o Cifra Club com benefícios exclusivos e sem anúncios
    Cifra Club Pro
    Aproveite o Cifra Club com benefícios exclusivos e sem anúncios
    OK