Cifra Club

Sadness and Sorrow

Naruto

Cifra: Principal
exibições 297.993
Tom: G
Intro:

E|--14----- 12-----12-----10-----10-----8-----12-----17-----17-----19-----14-----------------|
B|--12------12-----12-----12-----10-----10---------------------------------------------------|
G|---9-------9-----11-----11------9-----9----------------------------------------------------|
D|----------------------------------------------------------16-------------------------------|
A|-------------------------------------------------------------------------------------------|
E|-------------------------------------------------------------------------------------------|


                             ^        ^                                ^
E|--0----3--2------------3--2-------2p0-------0---0--3--5---0-------------3-------2--3--5----|
B|--0----------3----0----------0----0----0----3-------------------------------3---3--5--7----|
G|-----0---------------0------------0---------0-----------0------2----------2---2---------7--|
D|------------------2------------------------------------------------2----0-------0----------|
A|-----------------------------------------2------------3-----3----3---3---------------------|
E|--0---------------0---------------0--------------------------------------------------------|


                      ^       ^                                 ^
E|--7---------5---2----2p0-----0--0-3--5---0------------3--------2-3-5-----------------------|
B|-------0-------------0---0---3---------------3---1--------3----3-5-7-----------------------|
G|-----0---0----2---2--0-------0---------0---0---0---0----0---0--------7---------------------|
D|------------0-----------------------------------------0--------0---------------------------|
A|---------------------------2---------3-----------------------------------------------------|
E|--3------------------0---------------------------------------------------------------------|


   ^             ^                                   ^
E|--0----3-2------------3-2----0-2-3-5-7-0-3-2--------2p0-------0--------3-5-3-2-----7-------|
B|--0---------3---0------------------------------3--------0---------0--------0-------8-------|
G|----0--------------0---------0---------0-----2------0-----0-----0---0------------7-7-------|
D|----------------2--------------------------0---4--------------4---2------------0-----------|
A|---------------------------2-------3-----------------------------------3-------------------|
E|--0-------------0-----------------------------------0--------------------------------------|


                                     ^
E|--7--------5--------5-7-0-3-2-------2p0-------0--------3-5-3-2---------0------------------|
B|------0--------3----------------3-------0---------0--------0-------0--------1-------------|
G|--------0----2----------0-----2-----0-----0-----0---0--------------0--------2-------------|
D|----0------0-----0----------0---4-------------4---2--------------4--------2---------------|
A|--------------------3----------------------------------3-------2-------0------------------|
E|--3---------------------------------0-----------------------------------------------------|

E|----0-0---0-0--0-0--0-0--0-0--0-0---------------------------------------------------------|
B|-----------------------------------3-3--3-3--3-3--3-3--3-3--3-3---------------------------|
G|-------------2--------------------------------------------------2---2---------------------|
D|--------2---------2--------------2-------------------2------------------------------------|
A|--0-------------------------2---------2---------2---------2-----0---0---------------------|
E|-----------------------0-------------------0----------------------------------------------|

                             ^    ^
E|--0----10-10--12-10-12--10-10----------0-----------------------------------7--------------|
B|----10----------------------0---10--8---------------------8--------8----8----10---8-------|
G|---------------------------------0--------7----7----7-9----------9---9--------------------|
D|---------------------------------------------9---9-------10---7---------------------------|
A|--------0---------0---------------------------------------0-------------7-----------------|
E|----------------------------0----0--------7-------------------------------------8---------|


   ^                         ^
E|-----------------------------------------------------------------0-0----------------------|
B|--8----------------------8---------------------------------------0-0----------------------|
G|--0--9-7-------------7-9------------7-7-----9--9--------7-7------0-0----------------------|
D|---------------5-7-9-------10-------9-9----10-10------------------------------------------|
A|------------7---------------0----0------0--------0----------------------------------------|
E|--0------0-----0-----0------0------------------------0-------0-------7--------------------|


                              ^                                ^
E|--5-7-0-3--2------0----------3-5-3-2-----7---7-------5--------5-7-0-3---2-----0-----------|
B|----------------------3-0----------------7----------------3-----------------------3-0-----|
G|-------------2------0--------0-----------7-------0------2-----5-----------2-----0---------|
D|---------0-4------2-------------------0--------0-----0----------------0-4-----2-----------|
A|--3--------------------------3------2-------------------------3---------------------------|
E|---------------------------------------------3--------------------------------------------|


   ^              ^               ^
E|--3-5-3-2--------0-------------0-8---------------------0------------10--------------------|
B|-------------0---1---------1-3---8-----------------0-------7---8--------------------------|
G|--0--------------0-------0-------9---------------0---7------------------------------------|
D|-----------0-4---------2---------------------2s4------------------------------------------|
A|--3------2-----------3---------------------2----------------------------------------------|
E|-------------------3---------------------0------------------------------------------------|
Acordes para:

    0 comentários

      mostrar mais comentários

      Conseguiu tocar?

      22tocaram23ainda não

      Grave um vídeo tocando Sadness and Sorrow e mande pra gente!

      00:00 / 00:00
      outros vídeos desta música
      repetirqualidadeautomática
      Outro vídeos desta música
        00:00 / 00:00
        automática
        OK