Cifra Club

Aprenda

Sadness and Sorrow

Naruto

Cifra: Principal (violão e guitarra)
Tom: Em
[Intro]

E|-14-12-12-10-10-8---12-17-17-19-14--------|
B|-12-12-12-12-10-10------------------------|
G|-9--9--11-11-9--9-------------------------|
D|--------------------------16--------------|
A|------------------------------------------|
E|------------------------------------------|

E|-0---3-2--------3-2-----------------------|
B|-0-------3--0-------0---------------------|
G|---0----------0---------------------------|
D|------------2-----------------------------|
A|------------------------------------------|
E|-0----------0-----------------------------|

[Primeira Parte]

E|-2p0------0--0-3-5---0--------------------|
B|-0----0---3-------------------------------|
G|-0--------0--------0-----2----------------|
D|-----------------------------2------------|
A|--------2--------3-----3---3---3----------|
E|-0----------------------------------------|

E|-3--------2-3-5---7-------5---2-----------|
B|-----3----3-5-7-------0-------------------|
G|---2---2--------7---0---0---2---2---------|
D|-0--------0---------------0---------------|
A|------------------3-----------------------|
E|------------------------------------------|

E|-2p0-----0--0-3-5---0---------------------|
B|-0---0---3--------------3---1-------------|
G|-0-------0--------0---0---0---0-----------|
D|------------------------------------------|
A|-------2--------3-------------------------|
E|-0----------------------------------------|

E|-3-------2-3-5----0---3-2------3-2--------|
B|-----3---3-5-7----0-------3--0------------|
G|---0---0-------7----0---------------------|
D|-0-------0-------------------2------------|
A|------------------0-----------------------|
E|-----------------------------0------------|

[Segunda Parte]

E|---0-2-3-5-7-0-3-2-----2p0-----0----------|
B|---------------------3-----0-------0------|
G|---0---------0-----2---0-----0---0---0----|
D|-----------------0---4-------------2------|
A|-2-------3---------------------4----------|
E|-----------------------0------------------|

E|-3-5-3-2-----7--7-------5-----------------|
B|-----0-------8------0-------3-------------|
G|-----------7-7--------0---2---------------|
D|---------0--------0-----0-----0-----------|
A|-3----------------------------------------|
E|----------------3-------------------------|

E|-5-7-0-3-2------2p0-----0-------3-5-3-2---|
B|-------------3------0-------0-------0-----|
G|-----0-----2----0-----0---0---0-----------|
D|---------0---4----------4---2-------------|
A|-3------------------------------3---------|
E|----------------0-------------------------|

E|--------0---------------------------------|
B|-----0------1-----------------------------|
G|-----0------2-----------------------------|
D|---4------2-------------------------------|
A|-2------0---------------------------------|
E|------------------------------------------|

[Ponte]

E|---0-0---0-0---0-0--0-0---0-0---0-0-------|
B|------------------------------------------|
G|-------------2----------------------------|
D|-------2----------2-----------------2-----|
A|-0----------------------------2-----------|
E|------------------------0-----------------|

E|------------------------------------------|
B|-3-3---3-3---3-3---3-3---3-3--3-3---------|
G|----------------------------------2--2----|
D|-----------------------2------------------|
A|-----2-----------2----------2-----0--0----|
E|-----------0------------------------------|

E|-0----10-10-12-10-12--10-10------0--------|
B|---10--------------------0--10-8----------|
G|----------------------------0-------------|
D|------------------------------------------|
A|------0--------0--------------------------|
E|-------------------------0--0-------------|

E|--------------------------7---------------|
B|-------------8------8---8---10---8--------|
G|-7---7---7-9------9---9-------------------|
D|---9---9-----10-7-------------------------|
A|-------------0----------7-----------------|
E|-7-----------------------------8----------|

E|------------------------------------------|
B|-8---------------------8------------------|
G|-0-9-7-------------7-9---------7-7--------|
D|-------------5-7-9-------10----9-9--------|
A|---------7---------------0---0-----0------|
E|-0-----0---0-------0-----0----------------|

E|------------------0-0---------------------|
B|------------------0-0---------------------|
G|-9--9-------7-7---0-0---------------------|
D|-10-10------------------------------------|
A|-------0----------------------------------|
E|---------0------0-----7-------------------|

[Terceira Parte]

E|-5-7-0-3---2----0--------3-5-3-2-----7----|
B|--------------------3-0--------------7----|
G|-------------2----0------0-----------7----|
D|---------0-4----2------------------0------|
A|-3-----------------------3-------2--------|
E|------------------------------------------|

E|-7-----5------5-7-0-3---2---0-------------|
B|-----------3--------------------3-0-------|
G|-----0---2----5-----------2---0-----------|
D|---0---0--------------0-4---2-------------|
A|--------------3---------------------------|
E|-3----------------------------------------|

E|-3-5-3-2--------0-------------0-8---------|
B|-------------0--1---------1-3---8---------|
G|-0--------------0-------0-------9---------|
D|-----------0-4--------2-------------------|
A|-3-------2----------3---------------------|
E|------------------3-----------------------|

E|---------------0------10------------------|
B|-----------0-----7-8----------------------|
G|---------0---7----------------------------|
D|-----2/4----------------------------------|
A|---2--------------------------------------|
E|-0----------------------------------------|
Composição de 増田俊郎 Toshiro Masuda 454.166 exibições
    • ½ Tom
    • Am
    • Bbm
    • Bm
    • Cm
    • C#m
    • Dm
    • Ebm
    • Em
    • Fm
    • F#m
    • Gm
    • G#m
  • Adicionar à lista

    0 comentários

    Mostrar mais comentários

    Conseguiu tocar?

    42 Tocaram 76 Ainda não

    Grave um vídeo tocando Sadness and Sorrow e mande pra gente!

    00:00 / 00:00
    outros vídeos desta música
    repetir qualidade Automático
    Outros vídeos desta música
    00:00 / 00:00
    Automático
    OK