Cifra Club

The Rising Fighting Spirit

Naruto

Cifra: Principal
exibições 148.553
Tom: A
(riff 1)

E|--------------------------|----------------------------------|----------------------|
B|--------------------------|----------------------------------|----------------------|
G|--------------------------|----------------------------------|-----7----------------|
D|--------------------------|----------------------------------|-----7---------7------|
A|-------------------2-p0---|----------------------------------|-----5---------7------|
E|----0-0-0-3-2-0-----------|----3-5-3-2------0-0-0-3-2-0------|---------------5------|

E|--------------------------|-----------------------|-----------------------|
B|--------------------------|-----------------------|-----------------------|
G|--------------------------|-----------------------|-----5---------4-------|
D|--------------------------|-----------------------|-----5---------4-------|
A|---------------------2-p0-|-----------------------|-----3---------2-------|
E|----0-0-0-3-2-0-----------|----3-5-3-2------------|-----------------------|

E|---------------------------|----------------------------------|--------------------|
B|---------------------------|----------------------------------|--------------------|
G|---------------------------|----------------------------------|-----7--------------|
D|---------------------------|----------------------------------|-----7---------7----|
A|--------------------2-p0---|----------------------------------|-----5---------7----|
E|----0-0-0-3-2-0------------|----3-5-3-2------0-0-0-3-2-0------|---------------5----|

E|--------------------------|-----------------------|----------------------|
B|--------------------------|-----------------------|----------------------|
G|--------------------------|-----------------------|-----5---------4------|
D|--------------------------|-----------------------|-----5---------4------|
A|---------------------2-p0-|-----------------------|-----3---------2------|
E|----0-0-0-3-2-0-----------|----3-5-3-2------------|----------------------|

(riff 2)
E|--------------------------------|----------------------------------|
B|--------------------------------|----------------------------------|
G|---9--9---x--x-----9--9---x--x--|----7--7-----x--x-----7--7---x--x-|
D|---9--9---x--x-----9--9---x--x--|----7--7-----x--x-----7--7---x--x-|
A|---7--7---x--x-----7--7---x--x--|----5--5-----x--x-----5--5---x--x-|
E|--------------------------------|----------------------------------|

E|--------------------------------|-----------------------------------|
B|--------------------------------|-----------------------------------|
G|---9--9---x--x-----9--9---x--x--|----7--7-----x--x-----7--7---x--x--|
D|---9--9---x--x-----9--9---x--x--|----7--7-----x--x-----7--7---x--x--|
A|---7--7---x--x-----7--7---x--x--|----5--5-----x--x-----5--5---x--x--|
E|--------------------------------|-----------------------------------|

E|--------------------------------|------------------------------------|
B|--------------------------------|------------------------------------|
G|---5--5---x--x-----5--5---x--x--|----7--7-----x--x-----7--7---x--x---|
D|---5--5---x--x-----5--5---x--x--|----7--7-----x--x-----7--7---x--x---|
A|---3--3---x--x-----3--3---x--x--|----5--5-----x--x-----5--5---x--x---|
E|--------------------------------|------------------------------------|

E|--------------------------|-----------------------|-----------------------|
B|--------------------------|-----------------------|-----------------------|
G|--------------------------|-----------------------|-----5---------4-------|
D|--------------------------|-----------------------|-----5---------4-------|
A|---------------------2-p0-|-----------------------|-----3---------2-------|
E|----0-0-0-3-2-0-----------|----3-5-3-2------------|-----------------------|

(riff 3)

E|---------------------|
B|---------------------|
G|---5---x---x---x--x--|     (4x)
D|---5---x---x---x--x--|
A|---3---x---x---x--x--|
E|---------------------|

E|--------------------|
B|--------------------|
G|---4---x---x---x--x-|      (2x)
D|---4---x---x---x--x-|
A|---2---x---x---x--x-|
E|--------------------|

E|---------------|-----------------|--------------------|------------------|------------------|
B|---------------|-----------------|--------------------|------------------|------------------|
G|---------------|-----------------|---4---x---x---x--x-|-5---x---x---x-x--|---7--7------7--7-|
D|-2---4---5--6--|--7--x--x--x--x--|---4---x---x---x--x-|-5---x---x---x-x--|---7--7------7--7-|
A|-2---4---5--6--|--7--x--x--x--x--|---2---x---x---x--x-|-3---x---x---x--x-|---5--5------5--5-|
E|-0---2---3--4--|--5--x--x--x--x--|--------------------|------------------|------------------|

(riff 4)
E|-------------------|------------------------|-------------------|------------------|
B|-------------------|------------------------|-------------------|------------------|
G|-------------------|---5-----------7-----4--|-------------------|---5----7----9----|
D|---2----4----5-----|---5----5------7-----4--|---2----4----5-----|---5----7----9----|
A|---2----4----5-----|---3----5------5-----2--|---2----4----5-----|---3----5----7----|
E|---0----2----3-----|--------3---------------|---0----2----3-----|------------------|
Acordes para:
    Colaboração e revisão:

    0 comentários

      mostrar mais comentários

      Conseguiu tocar?

      25tocaram5ainda não

      Grave um vídeo tocando The Rising Fighting Spirit e mande pra gente!

      00:00 / 00:00
      outros vídeos desta música
      repetirqualidadeautomática
      Outro vídeos desta música
        00:00 / 00:00
        automática
        OK