Cifra Club

Aprenda

The Rising Fighting Spirit

Naruto

Cifra: Versão 3 (violão e guitarra)
tom: G
1ª parte
|--------------------------|-------------------|-----------------------------------------------|
|--------------------------|-------------------|-----------------------------------------------|
|--------------------------|-------------------|-----------------------------------------------|
|--------------------------|--------------7----|--------------------------5--5---4-4-----------|
|-------------0h2p0----0---|--------------5--5-|------------0h2p0--0------3--3---2-2-----------|
|-0-0-0-3-0-0--------3--3-2|-0-0-0-3-0-0-----7-|0-0-0-3-0-0-------3-3-2-0------x---------------|

2ª parte
|---------------------------|------------------------------------------------------------------|
|---------------------------|------------------------13~13-15-17-15~-13-12---15-12~------------|
|/9-9-11-12-11-11h12p11p9---|/9-9-9-9-11-12-14~-12-11----------------------14~-----------------|
|------------------------12~|------------------------------------------------------------------|
|---------------------------|------------------------------------------------------------------|
|---------------------------|------------------------------------------------------------------|

3ªparte
|----------------------------------------------------------------------------------------------|
|----------------------------------------------------------------------------------------------|
|------------7-7-9~-9-7h9-9-7h9-9/12-12-12-9h12-12/14-14-14-14-12h14~-14-12-14-----------------|
|7-9---7-7h9-----------------------------------------------------------------------------------|
|----------------------------------------------------------------------------------------------|
|----------------------------------------------------------------------------------------------|

|----------------------------------------------------------------------------------------------|
|-12-15-12-12-15-12-12-15-12-12-15-12-15-15b-15b-15b-15b~--------------------------------------|
|----------------------------------------------------------------------------------------------|
|----------------------------------------------------------------------------------------------|
|----------------------------------------------------------------------------------------------|
|----------------------------------------------------------------------------------------------|

4ªparte
|----------------------------------------------------------------------------------------------|
|--------------15---------------17~-15---------------------------------------------------------|
|-----------14~---17~-16-14-16~--------17-16~----14~----14-16~---------------------------------|
|-17~-16-17-----------------------------------17-----17----------------------------------------|
|----------------------------------------------------------------------------------------------|
|----------------------------------------------------------------------------------------------|

|----------------------------------------------------------------------------------------------|
|-------------15--------------17~-15-----------------------------------------------------------|
|----------14~--17~-16-14-16~-------17-16-14---------------------------------------------------|
|-17~-16-17----------------------------------17-14-14-14-14~-----------------------------------|
|----------------------------------------------------------------------------------------------|
|----------------------------------------------------------------------------------------------|
Colaboração e revisão:
  • estevao marques
  • jose filho
  • Jorranes Jacomini
17.702 exibições
    • ½ Tom
    • A
    • Bb
    • B
    • C
    • Db
    • D
    • Eb
    • E
    • F
    • F#
    • G
    • Ab
  • Adicionar à lista

    0 comentários

    Ver todos os comentários

    Conseguiu tocar?

    10 Tocaram 2 Ainda não

    Grave um vídeo tocando The Rising Fighting Spirit e nos envie!

    00:00 / 00:00
    outros vídeos desta música
    repetir qualidade Automático
    Outros vídeos desta música
    00:00 / 00:00
    Automático
    Capítulos
    • Apresentação / Equipamentos
    • Tocando a Música
    • Configurações Pedais
    • Ensinando Riff Inicial
    • Ensinando Final
    • Ensinando Tema A
    • Ensinando Solo Tema A
    • Ensinando Base Solo de Koto
    • Ensinando Solo de Koto
    • Ensinando Tema B
    • Ensinando Solo Tema B
    • Encerramento

    Cifra Club Pro

    Aproveite o Cifra Club com benefícios exclusivos e sem anúncios
    Cifra Club Pro
    Aproveite o Cifra Club com benefícios exclusivos e sem anúncios
    OK