Message

Nas

Composição de: Nas / S. Barnes
tom: F
E|---6----6---5----5----3----3----3------5----|
B|--------------------------------------------|
G|-----7----7----7----7----5----5-----5-----5-|
D|--------------------------------------------|
A|--------------------------------------------|
E|--------------------------------------------|

E|---6----6---5----5----3----3----3------5----|
B|--------------------------------------------|
G|-----7----7----7----7----5----5-----5-----5-|
D|--------------------------------------------|
A|--------------------------------------------|
E|--------------------------------------------|

and continue through whole song


Theres the tab for you, its about 99% correct, if there any problem gimme some
feedback at DragonF*

ty
Phoo
Página 1 / 1

Letras e título
Acordes e artista

resetar configurações
OK