Cifra Club

Rocío de todos los campos

Natalia Lafourcade

Cifra: Principal (violão e guitarra)
tom: Dm
     Dm               F          Gm
E|----1-1---1-1-|------------|-------------|
B|----2-2---2-2-|---1-1--1-1-|---------3-3-|
G|----3-3---3-3-|---2-2--2-2-|---3-3---3-3-|
D|--0-0-0---0-0-|---3-3--3-3-|---5-5---5-5-|
A|--------0-----|-------3----|---5-5-5-----|
E|--------------|-1----------|-3-----------|

        A               Bb          G#m
E|--------------|--------.----|-------------|
B|----5-5---5-5-|---6-6---6-6-|---------4-4-|
G|----6-6---6-6-|---7-7---7-7-|---4-4---4-4-|
D|----7-7---7-7-|---8-8---8-8-|---6-6---6-6-|
A|--------7-----|-------8-----|---6-6-6-----|
E|--5-----------|-6-----------|-4-----------|


[Intro]

   Dm           A#Aug
E|--------1-0---------1-0--------0-3-1-0-------5---------5-|
B|------3-----------3-----3----1-------------6---8--6----6-|
G|----2-----------3------------------------7---------------|
D|--0-----------0------------0-----------0------------0----|
A|---------------------------------------------------------|
E|---------------------------------------------------------|

     Dm   Dm/C   Bbmaj7    A7                     Cm7
E|-1--1-1--1-1-1-1---------0-|-----3--------3-----------3-3--3|
B|----3----3-----3---------2-|-----3------3-----------4------3|
G|----2----2-----2---------0-| 2----0----0-----------3--------0|
D|----0----0-----3---------2-|-----2--2-----------5--------0--|
A|---------3-----1------0----|-----------------0--------------|
E|---------------------------|--0-----------------------------|

     Dm                                     A7
E|----1---5--------10----8----6---4----3--1---------0---5--0-----|
B|----3----------6-------8----6---4----3----------2----------2---|
G|----2--------7---------7----5---3----0--------0--------------2-|
D|-0--0------8---------7----5---3----2--------2------------------|
A|------------------------------------------0--------------------|
E|---------------------------------------------------------------|

     Dm
E|---1-1---1-1---1-1---1-1-|
B|---3-3---3-3---2-2---3-3-|
G|---2-2---2-2---3-3---2-2-|
D|-0-0-0---0-0-0-0-0---0-0-|
A|-------0-----------0-----|
E|-------------------------|

[Strophe]
  Dm
Rocío de todos los campos
  F
Rocío de sal en el mar
  Dm
Tu baile hipnotiza la Luna
  F
El viento comienza a cantar

[Prechorus]
      Gm
Tu enciendes el fuego en la noche
  Gm
Escuchas los grillos hablar
    Gm
Desvistes tu cuerpo y tu alma
  Gm
Para en el agua nadar

[Prechorus Ending]
Am7

******************************************************

| *  Only Am7 Chord strum once/solo 1 rasgueo para Am7

******************************************************

[Chorus]
        Dm
Libre serás
                   F
Para siempre, para siempre
    Bb   Gm     G#m       A
Mariposa morada entre bambú

[Prechorus]
             Gm
Enciendes el barro en tus manos
                     A
Pasiones de amor prohibido
             Gm
Enciendes el barro en tus manos
                     A
Pasiones de amor prohibido

[Strophe]
  Dm
Rocío de los corazones
    F
Que van a tu casa y oran
  Dm
Rocío de todos los cielos
    F
De fiestas y de soledad

[Prechorus]
     Gm
Tu enciendes el fuego en la noche
Gm
Escuchas fantasmas andar
Gm
Desvistes tu cuerpo y tu alma
Gm
Para en el agua nadar

[Prechorus Ending]
Am7

******************************************************

| *  Only Am7 Chord strum once/solo 1 rasgueo para Am7

******************************************************

[Chorus]
        Dm
Libre serás
                   F
Para siempre, para siempre
    Bb   Gm     G#m       A
Mariposa morada entre bambú

[Prechorus]
              Gm
La muerte llegó
Gm
Seduciendo tu encanto
                A
Envolviendo tu manto
              Gm
La muerte llegó
Gm
Seduciendo tu encanto
  G#m           A
Y te fuiste pal campo

[Bridge]

            Fm        G#         C#    Bbm       Fm
E|-------------------------------------------------------|
B|------6-8-9---6-9--------------6-8-9--6-8--9h11p9----9-|
G|--7-9---------------5-8--5-8----------------------10---|
D|-------------------------------------------------------|
A|-------------------------------------------------------|
E|-------------------------------------------------------|

      G#      C# G
E|------8-9-8---6-----------|
B|-6-9--------9---6/8-------|
G|--------------------------|
D|---------------------2/5--|
A|--------------------------|
E|--------------------------|


***********************************************************

| *  los acordes muestran la segunda guitarra, la tablatura
     la primera guitarra / the chords are for the second
     guitar, tab is for first guitar

***********************************************************

[Bridge Ending]
Am7

******************************************************

| *  Only Am7 Chord strum once/solo 1 rasgueo para Am7

******************************************************

[Chorus]
        Dm
Libre serás
                   F
Para siempre, para siempre
    Bb   Gm     G#m       A
Mariposa morada entre bambú

[Outro]
                   Dm
Rocío de todos los campos
        F
Libre serás

                   Dm
Rocío de todos los campos
        F
Libre serás
                   Dm
Rocío de todos los campos
        F
Libre serás
        A
Libre serás
00:00 / 00:00
Outros vídeos desta música
Repetir
Outros vídeos desta música
Composição de Natalia Lafourcade
593 exibições
    • ½ Tom
    • Am
    • Bbm
    • Bm
    • Cm
    • C#m
    • Dm
    • Ebm
    • Em
    • Fm
    • F#m
    • Gm
    • G#m
  • Adicionar à lista

    0 comentários

    Ver todos os comentários

    Conseguiu tocar?

    0 Tocaram 0 Ainda não

    Grave um vídeo tocando Rocío de todos los campos e nos envie!

    Entre para oCifra Club PRO

    Tenha acesso a benefícios exclusivos no App e no Site

    • Chega de anúncios

    • Prioridade de compra em lançamentos

    • Mais recursos no app do Afinador

    • Atendimento Prioritário

    • Descontos nos produtos Cifra Club

    • Ajude a produzir mais conteúdo

    00:00 / 00:00

    Cifra Club Pro

    Aproveite o Cifra Club com benefícios exclusivos e sem anúncios
    Cifra Club Pro
    Aproveite o Cifra Club com benefícios exclusivos e sem anúncios
    OK