Cifra Club

Aprenda

Deixa o Menino Jogar

Natiruts

Tab de baixo: Principal
intro

G|-------------------------14-13--------------------------------------|
D|-------------------------------16-14-14/16--------------------------|
A|-----/12-12-12-12-12--12-------------------17-17-17~-17*-17\-5h7-7\-|
E|-5-5----------------------------------------------------------------|

G|---------2h4------------------------------------2h4---------------------|
D|-------------2h4-----------------------------------2h4------------2-2-2-|
A|-4-4-4-----------2h4p0-----------4p2------2-2-2-------2h4p0-------------|
E|-----------------------2-2-2--2h4---4-2-0-------------------0-0-0-------|


O valor ...
G|----------------------------------------------------------------------------4-7--4---4--------|
D|----------------------------------------------------------7-4-----------4-7--------7----7-4-4-|
A|----4-7-4-7---------7-4-7-------4-7-4-7------------4-5--5-----5--5-5--5-----------------------|
E|-5----------5--5-5---------5-5----------5--5-5-5-7--------------------------------------------|


Onde estará ...
G|---------2h4------------------------------------2h4---------------------|          
D|-------------2h4-----------------------------------2h4------------2-2-2-|         
A|-4-4-4-----------2h4p0-----------4p2------2-2-2-------2h4p0-------------|         
E|-----------------------2-2-2--2h4---4-2-0-------------------0-0-0-------|          


Os anos passam sem parar ...
G|---------------------------4-2----------|    
D|--------4-2---------------------4--2----|      
A|-------------4--2-0--2-2-2-----------4--|    
E|-2-2-2----------------------------------|    

                        ...famintos leões...
G|-----------------------------------------|    
D|--------4-2------------------------------|      
A|-------------4--2-0--2-2-2--2-2-2--2-2-3-|    
E|-2-2-2-----------------------------------|    


Deixa o menino jogar ...
G|------------------------------------|
D|------------------------------------|
A|-4--4---2-4--4---4-2--2---0-2--2--2-|
E|------4--------4--------2-------2---|
Composição de Natiruts
Colaboração e revisão:
  • Larissa Silva
  • Adolfo Junior
  • Matheus Camargo
11.681 exibições

0 comentários

Mostrar mais comentários

Conseguiu tocar?

1 Tocaram 0 Ainda não

Grave um vídeo tocando Deixa o Menino Jogar e mande pra gente!

00:00 / 00:00
outros vídeos desta música
repetir qualidade Automático
Outros vídeos desta música
00:00 / 00:00
Automático

Cifra Club Pro

Aproveite o Cifra Club com benefícios exclusivos e sem anúncios
Cifra Club Pro
Aproveite o Cifra Club com benefícios exclusivos e sem anúncios
OK