Cifra Club

Aprenda

Espero Que Um Dia

Natiruts

Tab de baixo: Principal
((INTRODUÇÃO))
G---------------------------------------------------
D-----------------------------4-4-4-4---------------
A------2-2-----2---2-----2---------------------------
E--12/-----2-2-------2-2--------------0-2-0-2-2-0-2-

G------------------------------
D------------------------------
A-0-2-2---2---2---4-4-4-----4--
E-----------2-----------4-4----


PRÉ-REFRÃO E REFRÃO(repete várias vezes)
G-----------------------------------
D-----------------------------------
A-----------------------0-2-0-2-2-2-
E-2-2-2-2-0-2-0-2-2-0-2-------------

G-----------------------------------
D-4-4-4-2-2-------------------------
A-----------4-4-2-2-0-0-------------
E-----------------------2-2-2-------

G-------------------------------------
D-------------------------------------
A---------------0-2-0-2-2------2--4-4-
E-0-2-0-2-2-0-2-----------2-2---------


...não vou cultivar tristeza...
G---------------------------------     \
D---------------------------------      \
A-----------------0-2-0-2-2-0-2-2-       \
E-2-2-0-2-0-2-0-2-----------------        \
                                           \
G---------------------------------          \
D-4-4-4-2-2-----------------------           \
A-----------4-4-2-----------------            \
E-----------------0-2-------------             \
                                                ----REPETE 2X   
G-----------------------------------------------   /
D-----------------------------------------------  /
A-----------------0-2-0-2-2---2-4-4-4-----4----- /
E-2-2-0-2-0-2-0-2-----------2---------4-4---4---/


...para se encontrar alguém, muitos caminhos existem...
G----------------------------------------------------------
D---------------4-4-4-----4-----------------6-6-6-----6----
A-2-2-2-----2-2-------2-2---2-4-4-4-----4-4-------4-4---4--
E-------2-2-------------------------4-4--------------------

...e a chama de um amor... 
G--------------------------------------------------------------------------
D---------------4-4-4-----4------------------------------------------------
A-2-2-2-----2-2-------2-2---2---------------------0-2-0-2-2-----2-2-----2--
E-------2-2-------------------2-2-2-0-2-0-2-2-0-2-----------2-2-----2-2---0

G---------------------------------------------
D---------------------------------------------
A---------------------0-2-0-2-2-----4-4-----4-
E-2-2-2-0-2-0-2-2-0-2-----------2-2-----2-2---


SOLO DE GUITARRA(REPETE 2X)
G-----------------------------------
D-----------------------------------
A-----------------------0-2-0-2-2-2-
E-2-2-2-2-0-2-0-2-2-0-2-------------

G-----------------------
D-4-4-4-2-2-------------
A-----------4-4-2-2-0-0-
E-----------------------

G-----------------------------------------------
D-----------------------------------------------
A-----------------------0-2-0-2-2-2-0-2-2-0-2-0-
E-2-2-2-2-0-2-0-2-2-0-2-------------------------

G-----------------------------------
D-----------------------------------
A-----------------------0-2-0-2-2-2-
E-2-2-2-2-0-2-0-2-2-0-2-------------

G-----------------------
D-4-4-4-2-2-------------
A-----------4-4-2-2-0-0-
E-----------------------

G-----------------------------------------------
D-----------------------------------------------
A-----------------------0-2-0-2-2-2-2-4---------
E-2-2-2-2-0-2-0-2-2-0-2------------------2------

VOLTA PRA INTRODUÇÃO, REPETE A MÚSICA TODA, MENOS O SOLO DE GUITARRA.
Composição de Natiruts
Colaboração e revisão:
  • Marcelo Barce
6.077 exibições

0 comentários

Mostrar mais comentários

Conseguiu tocar?

0 Tocaram 0 Ainda não

Grave um vídeo tocando Espero Que Um Dia e mande pra gente!

00:00 / 00:00
outros vídeos desta música
repetir qualidade Automático
Outros vídeos desta música
00:00 / 00:00
Automático

Cifra Club Pro

Aproveite o Cifra Club com benefícios exclusivos e sem anúncios
Cifra Club Pro
Aproveite o Cifra Club com benefícios exclusivos e sem anúncios
OK