Cifra Club

Aprenda

Glamour Tropical

Natiruts

Tab de baixo: Principal
Versos
G|----------------------------------------------------------------------------------------------|
D|------------------------------------------------------------------------4-4-4-------4-4-4-----|
A|-7-7-7------7-7-9-7-5-5-5-----5-5-5-5-5-5-5-3-----3-3-3-----3-3-3-3-3-2-------2-0-2-------2-5-|
E|-------7-10---------------5-7-----------------3-5-------3-5-----------------------------------|

Refrão
G|---5---5---5---5---7---7---7---7---4---4---4---4---9---9---9---9-|
D|-----------------------------------------------------------------|
A|-3---3---3---3---5---5---5---5---2---2---2---2---7---7---7---7---|
E|-----------------------------------------------------------------|
Composição de Alexandre Carlo
Colaboração e revisão:
  • Walter Brow
460 exibições

0 comentários

Mostrar mais comentários

Conseguiu tocar?

0 Tocaram 0 Ainda não

Grave um vídeo tocando Glamour Tropical e mande pra gente!

00:00 / 00:00
outros vídeos desta música
repetir qualidade Automático
Outros vídeos desta música
00:00 / 00:00
Automático

Cifra Club Pro

Aproveite o Cifra Club com benefícios exclusivos e sem anúncios
7 dias grátis
Cifra Club Pro
Aproveite o Cifra Club com benefícios exclusivos e sem anúncios
7 dias grátis
OK