Cifra Club

Aprenda

Não Chore Meu Amor

Natiruts

Tab de baixo: Principal
Já pensou em usar uma coleção de roupas do Cifra Club? Responda as perguntas abaixo e nos ajude nessa missão! →
INTRODUÇÃO(os / são ligados)
G---------------------------------------\
D--------------------------------------- \
A-----0---2-2/3\2-0------0---2-2/3\2-0--  \
E-0/2---2------------0/2---2------------   \
                                         ___2X
G------------------------------------   /
D---4-4-4-4-4-4-----4-4-4-4-4-4------  /
A-2--------------2------------------- /
E------------------------------------/

G---------------------------------------
D---------------------------------------
A-----0---2-2/3\2-0------0---2-2/3\2-0-- 
E-0/2---2------------0/2---2------------

G------------------------------------
D---4-4-4-4-4-4-----6-6-6-6-6-6------
A-2--------------4-------------------
E------------------------------------

BASE DA LETRA(3X)
G----------------\
D---4-4-4-4-4-4-- \3X
A-2-------------2 /
E----------------/

G----------------\
D---------------- \2X
A---4-4-4-4-4-4-- /
E-2-------------2/

PRÉ-REFRÃO
G----------------\
D---4-4-4-4-4-4-- \3X
A-2-------------2 /
E----------------/

G----------------
D----------------
A-4-2-4-2-4-4-2-4
E----------------

REFRÃO=INTRODUÇÃO

SOLINHO DE BAIXO PÓS-REFRÃO
G-----------------------------
D---4/16-16^17-16-14-14/12----
A-----------------------------
E-----------------------------

-----------------------
-------12-------12-14--
-12^14----12/14--------
-----------------------

BASE PÓS-SOLO(5X)
G----------------------------
D---4-4-4-4-4-4---4-4-2-4-4--
A-2-------------2------------
E----------------------------

-------------------------
----6-6-6-6-6-6----------
--4----------------------
-------------------------

GUITARRA E VOCAL

BASE
G---------------------------------- \
D------4-4-4-4-4-4-----4-4-4-4-4-4-  \
A-14/2-------------2-2------------2   \
E----------------------------------    \
                                        2x
G-------------------------------       /
D-------------------------------      /
A---7-7-7-7-7-7---7-7-7-7-7-7---     /
E-5-------------5------------5--____/

G--------------------------------\
D---9-9-9-9-9-9---9-9-7-9-9------ \2X
A-7-------------7---------------- /
E--------------------------------/

BASE FINAL(repete até acabar a música)
G------------------------------------------------------
D---4-4-4-4-4-4---4-4-2-4-4---4-4-4-4-4-4---4-4-2-4-4--
A-2-------------2-----------2-------------2------------
E------------------------------------------------------

G------------------------------------------------------
D------------------------------------------------------
A---7-7-7-7-7-7---7-7-5-7-7---7-7-7-7-7-7---7-7-5-7-7--
E-5-------------5-----------5-------------5------------
Composição de Natiruts
Colaboração e revisão:
  • Marcelo Barce
11.373 exibições

0 comentários

Ver todos os comentários

Conseguiu tocar?

0 Tocaram 0 Ainda não

Grave um vídeo tocando Não Chore Meu Amor e nos envie!

00:00 / 00:00
Outros vídeos desta música
Repetir Qualidade Automático
Outros vídeos desta música
00:00 / 00:00
Automático

Cifra Club Pro

Aproveite o Cifra Club com benefícios exclusivos e sem anúncios
Cifra Club Pro
Aproveite o Cifra Club com benefícios exclusivos e sem anúncios
OK