Cifra Club

Aprenda

Sorri, Sou Rei

Natiruts

Tab de baixo: Principal
Afinação: Drop D ( D-A-D-G)

INTRO
G|--------------------------------------------------| 2x
D|--------------------------------------------------|
A|-------------------------7-7-7-7------------------|
D|-0-0-0-0-5-5-5-5-7-7-7-7---------7-7-7-7----------|


"Quando a esperança..." 00:21
G|--------------------------------------------------| 5x
D|--------------------------------------------------|
A|------------------7-7-7-7-------------------------|
D|-0-0--5-5--7-7--7---------7-7-7-7-----------------|


"Quando você se foi..." 01:07
G|--------------------------------------------------| 3x
D|--------------------------------------------------|
A|-------------------------7-7-7-7------------------|
D|-0-0-0-0-5-5-5-5-7-7-7-7---------7-7-7-7----------|


"Agora que voltou..." 01:35
G|--------------------------------------------------| 1x
D|--------------------------------------------------|
A|--------------------------------------------------|
D|-3-3-3-3-5-5-5-5-7-7-7-7--------------------------|


01:42
G|----------------------------------------------------------------------| 1x
D|----------------------------------------------------------------------|
A|--------------------------7--------------------------------------7----|
D|-7-7-7-7-7-7-7-7-7-5-7-10---10-7----2-5-7----2-5-2-5-7----5-7-10---10-|


"Sabes que el simple..." 02:01
G|--------------------------------------------------| 1x
D|--------------------------------------------------|
A|-----5-5-----5-5-----5-5-----5--------------------|
D|-8-7-----8-7-----8-7-----8-7---7------------------|


"Dime que me adoras..." 02:38
G|-----------------------------------------------------------------| 1x
D|-----------------------------------------------------------------|
A|-----------------------------------------------------------------|
D|-12-12-12-12-8-8-7-7-12-12-12-12-8-8-7-7-12----------------------|

G|-----------------------------------------------------------------| 1x
D|-----------------------------------------------------------------|
A|-----------------------------------------------------------------|
D|-8-8-7-7-12-12-12-12-8-8-7-7-5-5-5-5-10-10-10-10-3-3-3-3-3-3-3-3-|


"Eu tô cansado..."
G|--------------------------------------------------| até o fim 
D|--------------------------------------------------| com um pequena
A|-------------------------7-7-7-7------------------| alteração abaixo
D|-0-0-0-0-5-5-5-5-7-7-7-7---------7-7-7-7----------| em 04:11


"Agora que voltou..." 04:11
G|--------------------------------------------------| 1x
D|--------------------------------------------------|
A|--------------------------------------------------|
D|-3-3-3-3-5-5-5-5-7-7-7-7--------------------------|
Composição de Max Viana
Colaboração e revisão:
  • Walter Brow
4.477 exibições

0 comentários

Ver todos os comentários

Conseguiu tocar?

6 Tocaram 0 Ainda não

Grave um vídeo tocando Sorri, Sou Rei e nos envie!

00:00 / 00:00
outros vídeos desta música
repetir qualidade Automático
Outros vídeos desta música
00:00 / 00:00
Automático

Cifra Club Pro

Aproveite o Cifra Club com benefícios exclusivos e sem anúncios
Cifra Club Pro
Aproveite o Cifra Club com benefícios exclusivos e sem anúncios
OK