Cifra Club

Hair Of The Dog

Nazareth

Cifra: Principal (violão e guitarra)
tom: A
 

    E*
    Heart breaker, soul shaker,
    E*
    I've been told about you.
    E*
    Skid roller, midnight shoulder,
    E*
    what they been sayin' must be true.
    A*
    Red-hot momma, velvet charmer,
    A*                        E*
    times' come to pay your dues.

    CHORUS
    E                        G#-A
    Now you're messin' with ...... a son of a bitch.
    E                         A        E
    Now you're messin' with a son of a bitch.
    E                        G#-A
    Now you're messin' with ...... a son of a bitch.
    E                         A        E
    Now you're messin' with a son of a bitch.

    E*
    Talkin' jivey, poison ivy,
    E*
    you ain't gonna cling to me.
    E*
    Minute taker, phone faker,
    E*
    I ain't so blind I can't see.
    A*
    Red-hot momma, velvet charmer,
    A*                           E*
    times' come to pay your dues.
    Chorus
    Instrumental
    Chorus


        
        TABLATURA
=------------------------=

Riff 1                        Riff 1A
 
e: -------------------------  -----------------------
B: -------------------------  -----------------------
G: -------------------------  -----------------------
D: -------------2---5P2-0H2-  -------------2---5P2-0-
A: ---------0-2-------------  ---------0-2-----------
E: -0---0-3-----------------  -0---0-3---------------
 
Riff 2                        Riff 2A
 
e: -------------------------  -----------------------
B: -------------------------  -----------------------
G: -----------2---5P2-0H2---  -----------2---5P2-0---
D: -----------2-------------  -----------2-----------
A: -0---0-3-4---------------  -0---0-3-4-------------
E: -------------------------  -----------------------
 
Chorus:
 
e: ---------------------------
B: ---------------------------
G: -9-----------9-----7-7-9-9-
D: -9---5-7-----9-----7-7-9-9-
A: -7---5-7-----7-----5-5-7-7-
E: -----3-5-------------------
 
Progression:
 
Riff 1 (Three times) 
Riff 1A (Once)
Riff 2 (Once)
Riff 2A (Once)
Riff 1 (Once)
Riff 1A (Once)
Chorus (Twice)

Solinho depois do refrão, com bastante flange
|------------------------------------|
|------------------------------------|
|-7h9--7h9--7h9--7h9---7h9-7---------|
|-----------------------------9-7-5--|
|------------------------------------|
|------------------------------------|
Composição de Agnew / Charlton / Dan McCafferty / Darrell Anthony Sweet / Manny Charlton / McCafferty / Peter Agnew / Sweet
Colaboração e revisão:
  • Vinicius Galdino
30.334 exibições
    • ½ Tom
    • A
    • Bb
    • B
    • C
    • Db
    • D
    • Eb
    • E
    • F
    • F#
    • G
    • Ab
  • Adicionar à lista

    0 comentários

    Ver todos os comentários

    Conseguiu tocar?

    5 Tocaram 0 Ainda não

    Grave um vídeo tocando Hair Of The Dog e nos envie!

    00:00 / 00:00
    Outros vídeos desta música
    Repetir Qualidade Automático
    Outros vídeos desta música
    00:00 / 00:00
    Automático

    Cifra Club Pro

    Aproveite o Cifra Club com benefícios exclusivos e sem anúncios
    Cifra Club Pro
    Aproveite o Cifra Club com benefícios exclusivos e sem anúncios
    OK