Cifra Club

Aprenda

Era Só Pra Ficar

Nechivile

Cifra: Principal (violão e guitarra)
tom: E
 Intro: E  B  C#m  G#m  A  E  F#m  Bsus4  B  E
E|------12-12-------11-11--------9-9-------7-7--|
B|--7/9---------9\7----------7\5-------5\4------|
G|----------------------------------------------|
D|----------------------------------------------|
A|----------------------------------------------|
E|----------------------------------------------|

E|-7\5-7-7/9-5-4-2-4---4/5-7-9-11/12-12-11-11/12--|
B|------------------------------------------------|
G|------------------------------------------------|
D|------------------------------------------------|
A|------------------------------------------------|
E|------------------------------------------------|


       E
Tinha tudo pra ser
   B                 C#m      G#m
só mais uma aventura sem amor
  A                       F#m
A gente até ja tinha combinado
             B
que não era nada sério
      E              B           C#m    G#m
Mas se tratando de amor tudo é imprevisível
      A                      F#m
O que era uma aventura se tornou uma loucura uma
 B
obsessão

E          B                     C#m
 Tudo começou com um olhar inocente
          G#m                    A
Mas depois de um beijo ficou diferente
                F#m            B
Foi pintando um doce desejo no ar

E            B                      C#m
Descobri que a gente não escolhe o destino
               G#m               A
No seu colo as vezes pareço um menino
             F#m        B
Querendo ter asas pra voar

    E
Era só pra ficar
B                       C#m
A gente foi ficando e acabou se
     G#m           A
Apaixonando pra valer
      F#m
O que era só momento ou um simples passa-tempo fez o
 B
Amor acontecer
     E
Era só pra ficar
B                       C#m
A gente foi ficando e acabou se
     G#m            A
Apaixonando de uma vez
      F#m
O que era só momento só um simples passa-tempo se
    B
Perdeu no amor que a gente fez

 Intro: E  B  C#m  G#m  A  E  F#m  Bsus4  B  E
E|------12-12-------11-11--------9-9-------7-7--|
B|--7/9---------9\7----------7\5-------5\4------|
G|----------------------------------------------|
D|----------------------------------------------|
A|----------------------------------------------|
E|----------------------------------------------|

E|-7\5-7-7/9-5-4-2-4---4/5-7-9-11/12-12-11-11/12--|
B|------------------------------------------------|
G|------------------------------------------------|
D|------------------------------------------------|
A|------------------------------------------------|
E|------------------------------------------------|


E          B                     C#m
 Tudo começou com um olhar inocente
          F#m                    A
Mas depois de um beijo ficou diferente
                F#m            B
Foi pintando um doce desejo no ar

E            B                      C#m
Descobri que a gente não escolhe o destino
               G#m               A
No seu colo as vezes pareço um menino
             F#m        B
Querendo ter asas pra voar

    E
Era só pra ficar
B                       C#m
A gente foi ficando e acabou se
     G#m           A
Apaixonando pra valer
      F#m
O que era só momento ou um simples passa-tempo fez o
 B
Amor acontecer
     E
Era só pra ficar
B                       C#m
A gente foi ficando e acabou se
     G#m            A
Apaixonando de uma vez
      F#m
O que era só momento só um simples passa-tempo se
    B
Perdeu no amor que a gente fez
Composição de Thulio Clarindo santos de melo
110.624 exibições
    • ½ Tom
    • A
    • Bb
    • B
    • C
    • Db
    • D
    • Eb
    • E
    • F
    • F#
    • G
    • Ab
  • Adicionar à lista

    0 comentários

    Ver todos os comentários

    Conseguiu tocar?

    1 Tocaram 0 Ainda não

    Grave um vídeo tocando Era Só Pra Ficar e nos envie!

    00:00 / 00:00
    Outros vídeos desta música
    Repetir Qualidade Automático
    Outros vídeos desta música
    00:00 / 00:00
    Automático

    Cifra Club Pro

    Aproveite o Cifra Club com benefícios exclusivos e sem anúncios
    Cifra Club Pro
    Aproveite o Cifra Club com benefícios exclusivos e sem anúncios
    OK