Cifra Club

Aprenda

Não Vou Tirar Você do Coração

Nechivile

Cifra: Principal (violão e guitarra)
tom: D
Intro.: Solo 1  (D  A/C#   Bm  Bm/A  G  D/F#  Em  A)

D                A/C#    Bm
   Me diga o que aconteceu
                  Bm/A            G
Foi embora sem olhar nos olhos meus
                D/F#        Em         A
Me deixou só a saudade ocupando seu lugar 

D                 A/C#    Bm
   Será que seu amor acabou 
                   Bm/A          G
Ou será que outra paixão te pegou
                 D/F#         Em         A Bbº
Eu fiquei a ver navios procurando seu olhar

    Bm                         F#m
O silêncio do meu quarto ainda busca o teu sorriso                                                     |  Nesta parte há um
    G                                            D            D A/C# | outro violão fazendo
E pensar que você foi pra mim o meu paraíso                                                              |  acordes arpejados 
     Bm                        F#m | nas três primeiras cordas
Você está em tudo que eu faço, até mesmo nas minhas canções    
           G                     Em               A
Seu cheiro ainda está na minha pele e eu em tuas mãos

Refrão:

                     D     A/C#      Bm
         Não vou tirar você do coração
               Bm/A       G            D/F#       Em          A
         Não vou te arrancar dos meus sonhos de amor e de paixão 
                     D     A/C#      Bm
         Não vou tirar você do coração
               Bm/A        G           D/F#           Em      A          D
         Mas quero te lembrar que esse amor de tão lindo, só restou solidão

Riff1 

     Bm                         F#m
O silêncio do meu quarto ainda busca o teu sorriso
             G                                                     D          D  A/C#   -->                                                       e| ------10---9---7~-|
             E pensar que você foi pra mim o meu paraíso                                    b|----------------------|
         Bm                         F#m g|--7\9----------------|
Você está em tudo que eu faço, até mesmo nas minhas canções
           G                     Em               A
Seu cheiro ainda está na minha pele e eu em tuas mãos

Refrão 2x   +  Solo 2

Solo 1
                                 
e|-------------5---------------------------------------2---3---3\5---3---3----0-2----|   *
b|-----5\7--5-----3---2-3-2------------------2--3-------3---5--5\7----5---5----2-3---|
g|---2-----------------------2--2\4---2-4-2------------------------------------------|
d|-------------------------------------------------5---------------------------------| 2x
a|-----------------------------------------------------------------------------------|
E|-----------------------------------------------------------------------------------|

Riff 1
                                                                                                      A        Bbº

e|-------------5------------------------------------------------0------0----|
b|-----5\7--5-----3---2-3-2---------------------2--3-------------2------2---|
g|---2-----------------------2-----2\4---2-4-2-------------------2------0---|
d|------------------------------4-------------------5-----------2------2----|
a|--------------------------------------------------------------0------1----|
E|--------------------------------------------------------------------------|

Solo 2
                                                                                            
e|-------------5-------------------------------------------2-2--0----0-2----|         *
b|-----5\7--5-----3---2-3-2-----------2--3-----2--3---------3-3--2--3-2-3---|
g|---2-----------------------2----4-------2------------------------4--------|
d|---------------------------------------------------5----------------------|
a|--------------------------------------------------------------------------|
E|--------------------------------------------------------------------------|

* Fica melhor outro violão fazer a terça no final dos solos
Composição de Sergio Porto
Colaboração e revisão:
  • Gui Siqueira
37.224 exibições
    • ½ Tom
    • A
    • Bb
    • B
    • C
    • Db
    • D
    • Eb
    • E
    • F
    • F#
    • G
    • Ab
  • Adicionar à lista

    0 comentários

    Ver todos os comentários

    Conseguiu tocar?

    2 Tocaram 1 Ainda não

    Grave um vídeo tocando Não Vou Tirar Você do Coração e nos envie!

    00:00 / 00:00
    Outros vídeos desta música
    Repetir Qualidade Automático
    Outros vídeos desta música
    00:00 / 00:00
    Automático

    Cifra Club Pro

    Aproveite o Cifra Club com benefícios exclusivos e sem anúncios
    Cifra Club Pro
    Aproveite o Cifra Club com benefícios exclusivos e sem anúncios
    OK