Cifra Club

Naquela Mesa

Nelson Gonçalves

Cifra: Principal (violão e guitarra)
tom: A
[Intro]

[Parte 01 De 02]

  Dm9             Bb11+
E|-------0---0--------0---0-----------------|
B|-----3---3--------3---3-------------------|
G|-1-2----------2-3-------------------------|
D|---0------------0-------------------------|
A|---0------------1-------------------------|
E|------------------------------------------|

[Parte 02 De 02]

   E7/B      Gm/Bb     A7
E|-------0----3-1-0--------0----------------|
B|-----3---3--3-----3--2-3---2--------------|
G|-3-4--------0--------0-------2------------|
D|---0-----------------2--------------------|
A|---2--------1--------0--------------------|
E|------------------------------------------|

[Primeira Parte]

         Dm
Naquela mesa ele sentava sempre
                                    Gm
E me dizia sempre o que é viver melhor

Naquela mesa ele contava histórias
               A7
Que hoje na memória 
                    Dm
Eu guardo e sei de cor


Naquela mesa ele juntava a gente
              D7                    Gm
E contava contente o que fez de manhã
                             Dm
E nos seus olhos era tanto brilho
                  A7
Que mais que seu filho
               Dm
Eu fiquei seu fã

[Ritmo Primeira Parte]

[Parte 01 De 06]

   Dm
E|---1-1-----1-----1-1-----1-----1-1-----1--|
B|---3-3-----3-----3-3-----3-----3-3-----3--|
G|---2-2-----2-----2-2-----2-----2-2-----2--|
D|-0-------------0-------------0------------|
A|--------0-------------0-------------0-----|
E|------------------------------------------|

[Parte 02 De 06]

   Gm
E|---3-3-----1-----3-3-----3-----3-3-----3--|
B|---3-3-----3-----3-3-----3-----3-3-----3--|
G|---3-3-----2-----3-3-----3-----3-3-----3--|
D|------------------------------------------|
A|--------5-------------5-------------5-----|
E|-3------------3-------------3-------------|

[Parte 03 De 06]

   A7           Dm
E|---0-0-----0-----1-1-----1----------------|
B|---2-2-----2-----3-3-----3----------------|
G|---0-0-----0-----2-2-----2----------------|
D|---------------0--------------------------|
A|-0-------------------0--------------------|
E|--------0---------------------------------|

[Parte 04 De 06]

   Dm                          D7
E|---1-1-----1-----1-1-----1-----2-2-----2--|
B|---3-3-----3-----3-3-----3-----1-1-----1--|
G|---2-2-----2-----2-2-----2-----2-2-----2--|
D|-0-------------0-------------0------------|
A|--------0-------------0-------------0-----|
E|------------------------------------------|

[Parte 05 De 06]

   Gm
E|---3-3-----3-----3-3-----3----------------|
B|---3-3-----3-----3-3-----3----------------|
G|---3-3-----3-----3-3-----3----------------|
D|------------------------------------------|
A|--------5-------------5-------------------|
E|-3------------3---------------------------|

[Parte 06 De 06]

   Dm            A7            Dm
E|---1-1-----1-----0-0-----0-----1-1-----1--|
B|---3-3-----3-----2-2-----2-----3-3-----3--|
G|---2-2-----2-----0-0-----0-----2-2-----2--|
D|-0---------------------------0------------|
A|--------0------0--------------------0-----|
E|----------------------0-------------------|

[Segunda Parte]


Eu não sabia que doía tanto

Uma mesa num canto
                  Gm
Uma casa e um jardim

Se eu soubesse o quanto dói a vida
               A7              Dm
Essa dor tão doída não doía assim


Agora resta uma mesa na sala
                     D7
E hoje ninguém mais fala
             Gm
No seu bandolim
                         Dm
Naquela mesa tá faltando ele
             A7                Dm
E a saudade dele tá doendo em mim
         Gm              Dm
Naquela mesa tá faltando ele
             A7                Dm
E a saudade dele tá doendo em mim

[Ritmo Segunda Parte]

[Parte 01 De 08]

   Dm
E|---1-1-----1-----1-1-----1-----1-1-----1--|
B|---3-3-----3-----3-3-----3-----3-3-----3--|
G|---2-2-----2-----2-2-----2-----2-2-----2--|
D|-0-------------0-------------0------------|
A|--------0-------------0-------------0-----|
E|------------------------------------------|

[Parte 02 De 08]

   Gm
E|---3-3-----3-----3-3-----3-----3-3-----3--|
B|---3-3-----3-----3-3-----3-----3-3-----3--|
G|---3-3-----3-----3-3-----3-----3-3-----3--|
D|------------------------------------------|
A|--------5-------------5-------------5-----|
E|-3------------3-------------3-------------|

[Parte 03 De 08]

   A7           Dm
E|---0-0-----0-----1-1-----1----------------|
B|---2-2-----2-----3-3-----3----------------|
G|---0-0-----0-----2-2-----2----------------|
D|---------------0--------------------------|
A|-0-------------------0--------------------|
E|--------0---------------------------------|

[Parte 04 De 08]

   Dm                          D7
E|---1-1-----1-----1-1-----1-----2-2-----2--|
B|---3-3-----3-----3-3-----3-----1-1-----1--|
G|---2-2-----2-----2-2-----2-----2-2-----2--|
D|-0-------------0-------------0------------|
A|--------0-------------0-------------0-----|
E|------------------------------------------|

[Parte 05 De 08]

   Gm
E|---3-3-----3-----3-3-----3----------------|
B|---3-3-----3-----3-3-----3----------------|
G|---3-3-----3-----3-3-----3----------------|
D|------------------------------------------|
A|--------5-------------5-------------------|
E|-3------------3---------------------------|

[Parte 06 De 08]

   Dm            A7            
E|---1-1-----1-----0-0-----0----------------|
B|---3-3-----3-----2-2-----2----------------|
G|---2-2-----2-----0-0-----0----------------|
D|-0----------------------------------------|
A|--------0------0--------------------------|
E|----------------------0-------------------|

[Parte 07 De 08]

   Dm           Gm
E|---1-1-----1-----3-3-----3----------------|
B|---3-3-----3-----3-3-----3----------------|
G|---2-2-----2-----3-3-----3----------------|
D|-0----------------------------------------|
A|--------0-------------5-------------------|
E|--------------3---------------------------|

[Parte 08 De 08]

   Dm            A7           Dm 
E|---1-1-----1-----0-0-----0-----1-1-----1--|
B|---3-3-----3-----2-2-----2-----3-3-----3--|
G|---2-2-----2-----0-0-----0-----2-2-----2--|
D|-0--------------------------0-------------|
A|--------0------0--------------------0-----|
E|----------------------0-------------------|

[Base Solo]

Dm  Gm  A7  Dm

[Solo]

[Parte 01 De 04]

E|---1---0--------1-0-1-0------------------------------|
B|-----------3------------3----------------------------|
G|-------------2------------2--------------------------|
D|-3---3---3-------------------------------------------|
A|-----------------------------------------------------|
E|-----------------------------------------------------|

[Parte 02 De 04]

E|-------0-1-0------1-0-1-0----------------------------|
B|-----3-------3---------------------------------------|
G|---2-----------2----------0-3------------------------|
D|-3---------------------------------------------------|
A|-----------------------------------------------------|
E|-----------------------------------------------------|

[Parte 03 De 04]

E|---3---1---0----0-0-0-3-1-0--------------------------|
B|-----------------------------------------------------|
G|-0---0---0---3--------------3------------------------|
D|-----------------------------------------------------|
A|-----------------------------------------------------|
E|-----------------------------------------------------|

[Parte 04 De 04]

E|-0-0-0-0-0-0-0--0-3-2-1-0----------------------------|
B|-----------------------------------------------------|
G|--------------------------2--0---0-2-----------------|
D|-------------------------------3---------------------|
A|-----------------------------------------------------|
E|-----------------------------------------------------|

[Segunda Parte]

Agora resta uma mesa na sala
                     D7
E hoje ninguém mais fala
             Gm
No seu bandolim
                         Dm
Naquela mesa tá faltando ele
             A7                Dm
E a saudade dele tá doendo em mim
         Gm              Dm
Naquela mesa tá faltando ele
             A7                Dm
E a saudade dele tá doendo em mim

[Segunda Parte]

Eu não sabia que doía tanto

Uma mesa num canto
                  Gm
Uma casa e um jardim

Se eu soubesse o quanto dói a vida
               A7              Dm
Essa dor tão doída não doía assim


Agora resta uma mesa na sala
                     D7
E hoje ninguém mais fala
             Gm
No seu bandolim
                         Dm
Naquela mesa tá faltando ele
             A7                Dm
E a saudade dele tá doendo em mim
         Gm              Dm
Naquela mesa tá faltando ele
             A7                Dm
E a saudade dele tá doendo em mim
00:00 / 00:00
Outros vídeos desta música
Repetir
Outros vídeos desta música
Composição de Sérgio Bittencourt
Colaboração e revisão:
  • Leandro Sandim
367 exibições
  • Simplificar cifra
    • ½ Tom
    • A
    • Bb
    • B
    • C
    • Db
    • D
    • Eb
    • E
    • F
    • F#
    • G
    • Ab
  • Adicionar à lista

    0 comentários

    Ver todos os comentários

    Conseguiu tocar?

    2 Tocaram 0 Ainda não

    Grave um vídeo tocando Naquela Mesa e nos envie!

    00:00 / 00:00
    Capítulos
    • Tocando a Música
    • Acordes da Introdução
    • Tocando Introdução
    • Ensinando Introdução
    • Acordes da Primeira Parte
    • Tocando Primeira Parte
    • Ensinando Primeira Parte
    • Dicas da Segunda Parte
    • Tocando Segunda Parte
    • Dicas do Solo
    • Tocando Solo
    • Ensinando Solo
    • Encerramento

    Cifra Club Pro

    Aproveite o Cifra Club com benefícios exclusivos e sem anúncios
    Cifra Club Pro
    Aproveite o Cifra Club com benefícios exclusivos e sem anúncios
    OK