Cifra Club

Naquela Mesa

Nelson Gonçalves

Cifra: Principal (violão e guitarra)
Tom: A
[Intro] Gm  Dm  A7  Dm

E|--------10--12--10--12----------10--12--10--12--------|
B|--9--10----------------10--11-------------------11--12|
G|------------------------------------------------------|
D|------------------------------------------------------|
A|------------------------------------------------------|
E|------------------------------------------------------|

E|--10--12--10--15--13--12--10--12--10--9--7--5---------|
B|------------------------------------------------------|
G|------------------------------------------------------|
D|------------------------------------------------------|
A|------------------------------------------------------|
E|------------------------------------------------------|

        Dm
Naquela mesa ele sentava sempre
              Dm/C                       Gm
E me dizia sempre o que é viver melhor
         Gm7M                Gm11
Naquela mesa ele contava histórias
            Bb7                    A7        Dm
Que hoje na memória eu guardo e sei de cor
         Dm                 Dm/C
Naquela mesa ele juntava a gente
               D7                 Gm
E contava contente o que fez de manhã
     Gm7M       Gm11             Dm
E nos seus olhos era tanto brilho
                  A7
Que mais que seu filho
              Dm
Eu fiquei seu fã
          Dm
Eu não sabia que doía tanto
               Dm/C                      Gm
Uma mesa num canto, uma casa e um jardim
         Gm7M                 Gm11
Se eu soubesse quanto dói a vida
              Bb7            A7        Dm
Essa dor tão doída, não doía assim
        Dm               Dm/C
Agora resta uma mesa na sala
                    D7            Gm
E hoje ninguém mais fala no seu bandolim
 Gm7M           Gm11            Dm
Naquela mesa tá faltando ele
             A7                D7
E a saudade dele tá doendo em mim
         Gm       Gm7M       Dm
Naquela mesa tá faltando ele
            A7                Dm
E a saudade dele tá doendo em mim

[Solo]

E|-----13----12----10-----------------------------------|
B|--10----10----10----10--------------------------------|
G|------------------------------------------------------|
D|------------------------------------------------------|
A|------------------------------------------------------|
E|------------------------------------------------------|

E|--13-12-13-12-10--------------------------------------|
B|-----------------10-----------------------------------|
G|------------------------------------------------------|
D|------------------------------------------------------|
A|------------------------------------------------------|
E|------------------------------------------------------|

E|-----10-12-13-12-10-----------------------------------|
B|--10----------------10--------------------------------|
G|------------------------------------------------------|
D|------------------------------------------------------|
A|------------------------------------------------------|
E|------------------------------------------------------|

E|--13-12-13-12-----------------------------------------|
B|--------------10-11-----------------------------------|
G|------------------------------------------------------|
D|------------------------------------------------------|
A|------------------------------------------------------|
E|------------------------------------------------------|

E|-----15-13-12----12-12-12-15-13-12--------------------|
B|--11----------11-------------------11-----------------|
G|------------------------------------------------------|
D|------------------------------------------------------|
A|------------------------------------------------------|
E|------------------------------------------------------|

E|-12-12-12-12-12-12-12--12-15-13-12-10-----------------|
B|--------------------------------------10--8-----8--10-|
G|---------------------------------------------10-------|
D|------------------------------------------------------|
A|------------------------------------------------------|
E|------------------------------------------------------|

Agora resta uma mesa na sala
                   D7             Gm
E hoje ninguém mais fala no seu bandolim
 Gm7M      Gm11            Dm
Naquela mesa tá faltando ele
             A7                   D7
E a saudade dele tá doendo em mim
   Gm     Gm7M             Dm
Naquela mesa tá faltando ele
             A7                   Dm
E a saudade dele tá doendo em mim
exibições 452.853

0 comentários

mostrar mais comentários

Conseguiu tocar?

31 tocaram 13 ainda não

Grave um vídeo tocando Naquela Mesa e mande pra gente!

00:00 / 00:00
outros vídeos desta música
repetir qualidade Automático
Outros vídeos desta música
00:00 / 00:00
Automático
OK