Cifra Club

Aprenda

Somos Libertos

Nengo Vieira

Cifra: Principal (violão e guitarra)
tom: D
 Intro: A  Bm  D  Bm  A  F#m  A  F#m
E|------------------------------------------------------|
B|------------------------------------------------------|
G|------------------------------------------------------|
D|--------------------7-8-9-9----------7-8-9-9----------|
A|-----5----------------------9-7-9------------9-7-9----|
E|-5-7----7-5--2-5-2----------------7----------------7--|

E|---------------------------------------|
B|---------------------------------------|
G|---------------------------------------|   (2x)
D|------------7--------------------------|
A|---4-7--7-9----------------------------|
E|-5-------------------------------------|

E|---------------------------------------|
B|---------------------------------------|
G|---------------------------------------|
D|-7-8-9-9-----------7-8-9---------------|
A|---------9-7-9-----------9-7-9---------|
E|---------------7---------------7-------|

E|---------------------------------------|
B|---------------------------------------|
G|---------------------------------------|   (2x)
D|------------7--------------------------|
A|---4-7--7-9----------------------------|
E|-5-------------------------------------|

Bm                 A
Caminhar em direção,
Bm                 A
Caminho a salvação.
D                        F#m
que essa luz, que é Jesus,

Bm                    A
E ele vem pra nos dizer,
Bm                 A Bm                       A
Como se faz pra viver,sim como se faz pra sentir
D            F#m          Bm
E amar, e unir, os irmãos.
                       A
Só jesus é a salvação,
Bm                 A
Caminho a redenção
        D                F#m             Bm
que essa luz, que é Jesus, nosso amor...

D
Quanta gente não percebe,
A
que o trabalho desses homens,
G                           F#m
 está longe do amor de Deus.
D                         A
Eu me sinto tão contente,
                      G
em cantar eternamente,
                                        F#m
pro meu Deus que fez a terra e o céu (2x)

Bm
Pelo sangue de jesus,
Bm
Pelo sangue de jesus,
                 A
Nos somos libertos
A              A
Somos libertos, somos libertos.
Bm
Pelo sangue dessa luz,
Bm
Pelo,pelo sangue de Jesus nós
A                                             Bm
Somos libertos, somos libertos, somos libertos
Composição de Nengo Vieira
Colaboração e revisão:
  • Lucas Ferreira
  • Erick Jesus
  • Filipe Cardoso
17.754 exibições
    • ½ Tom
    • A
    • Bb
    • B
    • C
    • Db
    • D
    • Eb
    • E
    • F
    • F#
    • G
    • Ab
  • Adicionar à lista

    0 comentários

    Ver todos os comentários
    00:00 / 00:00
    Outros vídeos desta música
    Repetir Qualidade Automático
    Outros vídeos desta música
    00:00 / 00:00
    Automático

    Cifra Club Pro

    Aproveite o Cifra Club com benefícios exclusivos e sem anúncios
    Cifra Club Pro
    Aproveite o Cifra Club com benefícios exclusivos e sem anúncios
    OK