Cifra Club

Você Vai Lembrar de Mim

Nenhum de Nós

Cifra: Principal
exibições 744.049
Tom: A
Intro 4x: A  Dm

Primeira Parte:
  A           Dm
Quando eu te vejo
   A        Dm
Espero teu beijo
     A        Dm
Não sinto vergonha
  A       Dm
Apenas desejo

       A      Dm
Minha boca encosta
        A         Dm
Em sua boca que treme
     A         Dm
Meus olhos eu fecho
        A           Dm
Mas os seus estão abertos
   A       Dm
E|-----0------------1p0--------|
B|-----------2/3--------3------|
G|---2------------2------------|
D|-----------------------------|
A|-0-------0-------------------|
E|-----------------------------|

Segunda Parte:
 Bm7                 E
Tudo bem se não deu certo
      Bm7                      E
Eu achei que nós chegamos tão perto
      F#m7                    D5(9)
Mas agora - com certeza eu enxergo
        E       E4          E5
Que no fim eu amei por nós dois
   Bm             E        Bm      E
E|-------2--------------0-------2------0---|
B|---------3-------------------------------|
G|----4------4----------------4------------|
D|-------------4-----2---------------2-----|
A|-2-----------------------2---------------|
E|----------------0----------------0-------|
   F#m            D
E|------5-------------2--------------------|
B|---------2--------3----3-----------------|
G|---2-------2----2------------------------|
D|-4-----------4---------------------------|
A|-----------------------------------------|
E|-----------------------------------------|
   E        E4    E5        E4
E|-----4------5-------7-------5------------|
B|-------5------5---5---5---5---5---5------|
G|-2/4------4-----4-------4-------4--------|
D|-----------------------------------------|
A|-----------------------------------------|
E|-----------------------------------------|

Primeira Parte - com variação na letra:
A            Dm    A       Dm
Esse foi um beijo de despedida
  A            Dm        A   Dm
Que se dá uma vez só na vida
        A     Dm   A      Dm
Que explica  tudo sem   brigas
      A             Dm       A   Dm
E clareia o mais escuro dos dias

Segunda Parte:
 Bm7                 E
Tudo bem se não deu certo
      Bm7                      E
Eu achei que nós chegamos tão perto
      F#m7                    Bm7
Mas agora - com certeza eu enxergo
        E
Que no fim eu amei por nós dois

Refrão:
          A5(9)         E                 Bm7
Mas você lembra! Você vai lembrar de mim
              D5(9)
Que o nosso amor valeu a pena
 A5(9)           E             Bm7
Lembrar é o nosso final feliz
      D5(9)                       E
você vai lembrar...vai lembrar...sim...
você vai lembrar de mim
   E        E4    E5        E4
E|-----4------5-------7-------5------------|
B|-------5------5---5---5---5---5---5------|
G|-2/4------4-----4-------4-------4--------|
D|-----------------------------------------|
A|-----------------------------------------|
E|-----------------------------------------|

Intro 4x: A  Dm

(Primeira Parte)

(Segunda Parte)

(Refrão)

(Intro)

Solo 3x: Bm7  E
E|-----------------------------------------|
B|-3p2-3p2---------------------------------|
G|--------4-2-------------------2----------|   (2x)
D|------------4-2h4-2-------2-4------------|
A|--------------------4-2-4----------------|
E|-----------------------------------------|

E|-----------------------------------------|
B|-3p2--3/5-3-2----------------------------|
G|--------------4-2h4-2--------------------|
D|-----------------------------------------|
A|-----------------------------------------|
E|-----------------------------------------|

E|-----------------------------------------|
B|-------------------------2-3-3/5~--------|
G|--------1--1-1-2-4--4-4------------------|
D|-4-2-4-----------------------------------|
A|-----------------------------------------|
E|-----------------------------------------|

Refrão:
          A5(9)     E                 Bm7
Mas você lembra! Você vai lembrar de mim
              D5(9)
Que o nosso amor valeu a pena
 A5(9)       E             Bm7
Lembrar é o nosso final feliz
      D5(9)
você vai lembrar...

  A5(9)     E                 Bm7
Mas você lembra! Você vai lembrar de mim
              D5(9)
Que o nosso amor valeu a pena
 A5(9)       E             Bm7
Lembrar é o nosso final feliz
      D5(9)                       E
você vai lembrar...vai lembrar...sim...
                     A5(9)
você vai lembrar de mim

0 comentários

    mostrar mais comentários

    Conseguiu tocar?

    62tocaram0ainda não

    Grave um vídeo tocando Você Vai Lembrar de Mim e mande pra gente!

    00:00 / 00:00
    outros vídeos desta música
    repetirqualidadeautomática
    Outro vídeos desta música
      00:00 / 00:00
      automática
      Capítulos
      • Início
      • Tocando a música
      • Acordes da introdução e primeira parte
      • Tocando intro e primeira parte
      • Ensinando introdução (violão 2)
      • Acordes da segunda parte
      • Tocando segunda parte
      • Ensinando segunda parte (violão 2 - Parte 1))
      • Ensinando segunda parte (violão 2 - Parte 2)
      • Ensinando segunda parte (violão 2 - Parte 3)
      • Ensinando ritmo da segunda parte
      • Acordes do refrão
      • Tocando o refrão
      • Acordes da base do solo
      • Tocando solo
      • Ensinando solo
      • Ensinando solo (Parte 1)
      • Ensinando solo (Parte 2)
      • Ensinando solo (Parte 3)
      • Acorde do trecho final
      • Tocando trecho final
      • Encerramento
      OK