Cifra Club

Finger On The Trigger

Never Heard Of It

Cifra: Principal (violão e guitarra)
Tom: A
Intro/Refrão (cada acorde 8x)

E|----------------------------------------------|
B|----------------------------------------------|
G|-7--------9-----------------------------------|
D|-7--------9--------7--------5-----------------| 2x
A|-5--------7--------7--------5-----------------|
E|-------------------5--------3-----------------|
                                                             
Verso:

E|------------------------------------------------------------|
B|------------------------------------------------------------|
G|------------------------------------------------------------|
D|-7-----------5-----------9-----------7--9--7--5-------------|
A|-7-----------5-----------9-----------7--9--7--5-------------|
E|-5-----------3-----------7-----------5--7--5--3-------------|

E|----------------------------------------------------------------------------------------|
B|----------------------------------------------------------------------------------------|
G|-5------5-5-5----5-5-5----5-5-5---------------------------------------------------------|
D|-5------5-5-5----5-5-5----5-5-5---------------------------------------------------------|
A|-3------3-3-3----3-3-3----3-3-3---5-5-5-5-5-5-5-5-5-5-5-5-5-5-5-5-----------------------|
E|--------------------------------3-3-3-3-3-3-3-3-3-3-3-3-3-3-3-3-------------------------|
                                             *  *  *  *  *  *  *  *  *  *  *  *  *  *  *  *

E|-------------------------------------------------------|
B|-------------------------------------------------------|
G|-------------------------------------------------------|
D|-7------7-7-7----7-7-7----7-7-7----7----5--------------|
A|-7------7-7-7----7-7-7----7-7-7----7----5--------------|
E|-5------5-5-5----5-5-5----5-5-5----5----3--------------|

Pre-Refrão:

E|------------------------------------------------------------------------|
B|------------------------------------------------------------------------|
G|--5-5-5---5-5-5---5-5---------------------------------------------------|
D|--5-5-5---5-5-5---5-5-(stop till you--------5-5-5---5-5-5---5-5---------|
A|--3-3-3---3-3-3---3-3-hear lead singer)--5-5-5---5-5-5---5-5------------|
E|---------------------------------------------------3-3-3---3-3-3---3-3--|

(Verso)
(Pre-Refrão0
(Intro/Refrão)

Ponte 2x:

E|--------------------------------------------|
B|--------------------------------------------|
G|-7-7----------------------------------------|
D|-7-7---5-5--3--333-3-3-3-3------------------|
A|-5-5---5-5--3--333-3-3-3-3------------------|
E|--------3-3--1--111-1-1-1-1-----------------|

E|------------------------------------------------------------------------------|
B|------------------------------------------------------------------------------|
G|-5--5555-5-5---7--7777-7-7---9--9999-9-9--------------------------------------|
D|-5--5555-5-5---7--7777-7-7---9--9999-9-9---3-3-3-333-3-3-3-333----------------|
A|-3--3333-3-3---5--5555-5-5---7--7777-7-7---3-3-3-333-3-3-3-333----------------|
E|---------------------------------------------------------1-1-1-111-1-1-1-111--|

E|----------------------------------------------------------------------------------|
B|---------------------------------------------------------------------11b-11b-10b--|
G|-----10b10p9p8-10b10p9p8-10b10p9p8-10b10p9p8--------------------------------------|
D|----------------------------------------------------------------------------------|
A|----------------------------------------------------------------------------------|
E|----------------------------------------------------------------------------------|

Deixe o ultimo acorde soar
E|------x-------x----x-x---x-x----------------------------|
B|------x-------x----x-x---x-x----------------------------|
G|-9-9-x-9-9-x-9-x-x-9-x-x-9------------------------------|
D|-9-9-x-9-9-x-9-x-x-9-x-x-9------------------------------|
A|-7-7-x-7-7-x-7-x-x-7-x-x-7------------------------------|
E|------x-------x----x-x----x-x---------------------------|

(Intro/Chorus) 2x

Outro:

E|------x-------x------x--------------------x------x----x-------------------|
B|------x-------x------x--------------------x------x----x-------------------|
G|------x-------x------x--------------------x------x----x-------------------|
D|-7-7-x-7-7-x-7-7-x-7-7-5--5--7-7-x-7-7-x-7-x-777-7-7----------------------|
A|-7-7-x-7-7-x-7-7-x-7-7-5--5--7-7-x-7-7-x-7-x-777-7-7----------------------|
E|-5-5-x-5-5-x-5-5-x-5-5-3--3--5-5-x-5-5-x-5-x-555-5-5----------------------|
exibições 4
Acordes para:
    Colaboração e revisão:
    • Daniel

    0 comentários

    mostrar mais comentários

    Conseguiu tocar?

    0 tocaram 0 ainda não

    Grave um vídeo tocando Finger On The Trigger e mande pra gente!

    00:00 / 00:00
    outros vídeos desta música
    repetir qualidade Automático
    Outros vídeos desta música
    00:00 / 00:00
    Automático
    OK