Better Off Dead

New Found Glory

Composição: New Found Glory
Tom: F#
 Tabbed by Jack B  *.
  
Better off dead

The song is power chords.. but this should work right.

beat is... 1-2, 1-234, 1-2, 1-234

(main riff)
--------------------------------
--------------------------------
-4-4------------4---------------
-4-4--6-4-4-4-6-4---------------
-2-2--6-4-4-4-6-2---------------
------4-2-2-2-4-----------------

It's all just variations on these chords

-----------------------------
-----------------------------
-------4---------------------
-------4---6---4-------------
-------2---6---4-------------
-----------4---2-------------
 
:: Ultimate Guitar Archive :: 
http://* 



Página 1 / 1

Letras e título
Acordes e artista

resetar configurações
OK