Cifra Club

Boulders

New Found Glory

Tab de baixo: Principal
___________________________________________________________________________
Tabbed by: Byron Andrada
Email: *

This is how our band play this song,it looks
simple but its kinda tricky with the tempo part...
oist jet! eto na! baseline drive rules!!! ch33rs!!!

It's a good song! enjoi....

Intro:
G|---------------------------------|
D|---------------------------------|
A|----7----5----3--------3-3-------|2x
E|---------------------------------|

Verse:
G|---------------------------------|
D|---------------------------------|
A|----7----5----3--------3-3-------|2x
E|---------------------------------|

G|--------------------------------------------|
D|--------9-7-5-----5-7-5---------------------|
A|----7---------5----------3------3x-3-3------|2x
E|--------------------------------------------|


Chorus:
G|--------------------------------------|
D|--------------------------------------|
A|----7--7--5--5--3--3-----3x-3-3-------|2x
E|--------------------------------------|

(repeat verse)
(repeat chorus)

Adlib:
G|----------------------------------------------------|
D|----------------------------------------------------|
A|--------------3----3-----7----5----3--------3-3-----|2x
E|----3----3------------------------------------------|

(repeat chorus)

Outro:
G|---------|
D|---------|
A|---------|
E|----3----|

G|-----------------------------------------------------------------|
D|-------------------------------------------5---------------------|
A|-----------------5----5-5-----3----3-3---3---3-3----3-3h5--------|
E|----3----3-3--------------------------------------------3--------|

G|-------------------------------------------------------|
D|-------------------------------------------------------|
A|-----------------5----5-5-----3----3-3---3-3-----------|
E|----3----3-3-------------------------------------------|

If you have some suggestions or comments,feel free to email me at *   
                    /bon
exibições 152
Composição: New Found Glory

0 comentários

mostrar mais comentários

Conseguiu tocar?

0 tocaram 0 ainda não

Grave um vídeo tocando Boulders e mande pra gente!

00:00 / 00:00
outros vídeos desta música
repetir qualidade Automático
Outros vídeos desta música
00:00 / 00:00
Automático
OK