Boy Crazy

New Found Glory

Composição de: New Found Glory
tom: A
Intro x2 (clean guitar)- Do not palm mute on the x's, just silence the 
guitar 
for intro and verses! 
This is also used for the Verses. 
e|---------------------------------------------------------------------------| 
B|---------------------------------------------------------------------------| 
G|--2x222--6x677---------2x222-----------------------------------------------| 
D|--2x222--6x677--4x444--2x222-----------------------------------------------| 
A|--0x000--4x455--4x444--0x000-----------------------------------------------| 
E|----------------2x244------------------------------------------------------| 

Pre-Chorus: Palm Muted (They'll target you with there eyes...) 
e|---------------------------------------------------------------------------| 
B|---------------------------------------------------------------------------| 
G|--777777777777777--6666666666666666--------------------7777777777777777----| 
D|--777777777777777--6666666666666666--7777777777777777--7777777777777777----| 
A|--555555555555555--4444444444444444--7777777777777777--5555555555555555----| 
E|-------------------------------------5555555555555555----------------------| 

Still Pre-Chorus: Not Palm-Muted (She shut you down...) 
e|---------------------------------------------------------------------------| 
B|---------------------------------------------------------------------------| 
G|---111111111111111111111111--13131313--14141414141414141414141414141414----| 
D|---111111111111111111111111--13131313--14141414141414141414141414141414----| 
A|---9-9-9-9-9-9-9-9-9-9-9-9---11111111--12121212121212121212121212121212----| 
E|---------------------------------------------------------------------------| 

e|---------------------------------------------------------------------------| 
B|---------------------------------------------------------------------------| 
G|-2-2-44467-----------------------------------------------------------------| 
D|-2-2-44467-----------------------------------------------------------------| 
A|-0-0-22245-----------------------------------------------------------------| 
E|---------------------------------------------------------------------------| 

Chorus: 
e|---------------------------------------------------------------------------| 
B|---------------------------------------------------------------------------| 
G|--2-7---7-2-7---7-2--------------------------------------------------------| 
D|--2-7-7-7-2-7-7-7-2--------------------------------------------------------| 
A|--0-5-7-5-0-5-7-5-0--------------------------------------------------------| 
E|------5-------5------------------------------------------------------------| 

During Solo: 
Guitar 1 
e|---------------------------------------------------------------------------| 
B|---------------------------------------------------------------------------| 
G|-2-7---7-------------------------------------------------------------------| 
D|-2-7-7-7-------------------------------------------------------------------| 
A|-0-5-7-5-------------------------------------------------------------------| 
E|-----5---------------------------------------------------------------------| 

Guitar 2 does small solo x2 
e|-------1-------1-----------------------------------------------------------| 
B|-2p1h1---1h2p1-------------------------------------------------------------| 
G|---------------------------------------------------------------------------| 
D|---------------------------------------------------------------------------| 
A|---------------------------------------------------------------------------| 
E|---------------------------------------------------------------------------| 

Bridge: (Just wait until your heart breaks...) 
e|---------------------------------------------------------------------------| 
B|---------------------------------------------------------------------------| 
G|-2xxxxxxxxxxxxxx-7xxxxxxxxxxxxxxx--------------------7777--7777------------| 
D|-2xxxxxxxxxxxxxx-7xxxxxxxxxxxxxxx--7xxxxxxxxxxxxxxx--7777--7777------------| 
A|-0xxxxxxxxxxxxxx-5xxxxxxxxxxxxxxx--7xxxxxxxxxxxxxxx--5555--5555------------| 
E|-----------------------------------5xxxxxxxxxxxxxxx------------------------| 

Ending 
e|---------------------------------------------------------------------------| 
B|---------------------------------------------------------------------------| 
G|-22-22---------------------------------------------------------------------| 
D|-22-22---------------------------------------------------------------------| 
A|-00-00---------------------------------------------------------------------| 
E|---------------------------------------------------------------------------| 
Página 1 / 1

Letras e título
Acordes e artista

resetar configurações
OK