Cifra Club

Glory Of Love

New Found Glory

Tab de baixo: Principal
ForgottenHope (Blink182sDVD@*)


*note-there are no notes played in the 
double digits numbered frets...  All they are 
both seperate notes if you see an 11 or
a 14 and so on.

VERSE
----------------------------------------------------------------
--5---5---5---5-------------------5---5-----------5---5---5---5-
33--33--33--33----5---5---5---5-33--33----3---3-33--33----------
----------------33--33--33--33----------11--11----------33--33--

PRE CHORUS
----------------------------------------------------------------
----------------------------------------------------------------
33-333-3--------11-111-1----------------11-111-1--------11-111-1
--------11-111-1--------33-333-344-444-4--------44-444-4--------

VERSE 1x

PRE CHORUS 1x

CHORUS
----------------------------------------------------------------
----------------------------------------------------------------
33333333--------33333333--------33333333--------55555555--------
--------11111111--------33333333--------55555555--------33333333
                      
----------------------------------------------------------------
----------------------------------------------------------------
--------5-5-5-557-7-7-77-(mute)---------5-555555--------3-333333
5-5-5-55----------------555555555-555555--------3-333333--------
play this only on the first chourus
------------------------
------------------------
33333333--------(muted)-
--------1111111133333333

VERSE 1x

PRE CHORUS 1x

CHORUS 1x

BRIDGE 

----------------
------------------------1--0-10
1-1-1-114-4-4-44---------------

--------------------------------------------------
--------------------1-1-3-3-1-3-5
exibições 682

0 comentários

mostrar mais comentários

Conseguiu tocar?

0 tocaram 0 ainda não

Grave um vídeo tocando Glory Of Love e mande pra gente!

00:00 / 00:00
outros vídeos desta música
repetir qualidade Automático
Outros vídeos desta música
00:00 / 00:00
Automático
OK