Cifra Club

My friends over you

New Found Glory

Cifra: Principal (violão e guitarra)
Tom: D
Intro

Chad
e)--------------------------------------------------------------
b)---5----5--7--5-------5-------5--7--5-------------------
g)------7----------7--7---7--7-----------7--7--7----------
d)--------------------------------------------------------------     x 4
a)---------------------------------------------------------------
e)---------------------------------------------------------------

Steve:
e)----------------------------------------------
b)----------------------------------------------
g)----------------------------------------------
d)---7-7-7--77--7--------------------------        x 2
a)---5-5-5--55--5---5-5-5--55--5-------
e)------------------3-3-3--33--3--------
            xx             xx
Verse

Both Guitars:
e)-------------------------------------------------------------
b)--------------------------------------------------------------
g)---------------------------------------------------------------
d)---7-7-7--77--7------------------7-7-7--77--7------------------      x 2
a)---5-5-5--55--5---5-5-5--55--5---5-5-5--55--5---2-2-2-/-4-/-5-5-5----
e)------------------3-3-3--33--3------------------0-0-0-/-2-/-3-3-3----
            xx             xx             xx
Pre Chorus

Both Guitars:
e)------------------------------------------------------------------
b)-----------------------------------------------------------------
g)------------------------------------------------------------------
d)------------------------------------------------------------------
a)--2-2-2-/-4-/-5-5-5--2-2-2-/-4-/-5-5-5--77777777-------
e)--0-0-0-/-2-/-3-3-3--0-0-0-/-2-/-3-3-3--55555555-------

Chorus Part 1

Both Guitars:
e)----------------------------------------------
b)----------------------------------------------
g)---777777777---------------7777777777-------------------------
d)---777777777---555555555---7777777777---55555555555----        
a)---555555555---555555555---5555555555---55555555555----
e)---------------333333333----------------33333333333--------

Chorus Part 2

Steve
e)--------------------------------------------------------------
b)--------------------------------------------------------------
g)--------------------------------------------------------------
d)--444444444-------------4444444444--------------
a)--222222222--555555555--2222222222--------------
e)-------------333333333----------------------------------

Chad
e)--------------------------------------------------------------
b)--------------------------------------------------------------
g)--44444--666-777---------666-777--44444--666-777------
d)--44444--xxx-xxx--55555--xxx-xxx--44444--xxx-xxx-----
a)--22222--444-555--55555--444-555--22222--444-555-------
e)------------------33333--------------------------------------

Both Guitars End Chorus on:
e)----------------------
b)---------------------
g)---------------------
d)----------------------
a)-----------55------
e)--33-22-00----3----

Break Down:

Chad
e)-----------------------------------------------
b)------------------------------------------------
g)----------------------------------------------
d)----------------------------------------------        x 2
a)---5--------5-------2--------2-----------
e)------2--3-----2-3-----2--3----5-3-----

Both Guitars Given Chad Plays as Chords instead of singles notes
e)----------------------------------------------
b)----------------------------------------------
g)----------------------------------------------
d)----------------------------------------------         x 3
a)---5--------5-------2--------2-----------
e)------2--3-----2-3-----2--3----5-3-----

Chad: (Clean)
e)----------------------------------------
b)------------------------------------------
g)------------------------------------------
d)--2-2-2-22--5-5-5-55---------        x 3
a)--2-2-2-22--5-5-5-55---------
e)--0-0-0-00--3-3-3-33-----------

Both Guitars (Lead you on....)
e)----------------------------
b)----------------------------
g)-----------------------------
d)--77777777777--------
a)--77777777777---------
e)--55555555555--------



Letra da música:

I'm drunk off your kiss
For another night in a row
This is becoming too routine for me
But I did not mean to lead you on
And it's all right to pretend
That we still talk
It's just for show, isn't it
It's my fault that it fell apart


Just maybe
You need this
And I didn't mean to
Lead you on


You were everything I wanted
But I just can't finish what I've started
There's no room left here on my back
It was damaged long ago
Though you swear that you are true
I still pick my friends over you
(My friends over you)


Please tell me everything,
That you think that I should know
About all the plans we made
When I was never to be found
And it's all right to forget
That we still talk
Its just for fun, isn't it
It's my fault that it fell apart


Cuz maybe you need this
And I didn't mean to
Lead you on


You were everything I wanted
But I just can't finish what I've started
There's no room left here on my back
It was damaged long ago
Though you swear that you are true
I still pick my friends over you


(My friends over you)


Just maybe you need this
You need this…
And I didn't mean to
Lead you on


You were everything I wanted
But I just can't finish what I've started
There's no room left here on my back
It was damaged long ago
Though you swear that you are true
I still pick my friends over you
exibições 36.953
Acordes para:
    Composição: New Found Glory

    0 comentários

    mostrar mais comentários

    Conseguiu tocar?

    1 tocaram 0 ainda não

    Grave um vídeo tocando My friends over you e mande pra gente!

    00:00 / 00:00
    outros vídeos desta música
    repetir qualidade Automático
    Outros vídeos desta música
    00:00 / 00:00
    Automático
    OK