Situations

New Found Glory

Composição: New Found Glory
Tom: D
Afinação|  E B G D A D

Intro:
E|----------------------------------------------------------------------------|
B|----------------------------------------------------------------------------|
G|----------------------------------------------------------------------------|
D|-----0h2---2h4---5h4---2h0------------0h2---2h4---5h4---2h0-----------------|
A|----------------------------------------------------------------------------|
D|--0-----0-----0-----0------0-000-00------0-----0-----0--------0-000-05------|

E|----------------------------------------------------------------------------|
B|----------------------------------------------------------------------------|
G|----------------------------------------------------------------------------|
D|-----0h2---2h4---5h4---2h0------------0h2---2h4---5h4---2h0-----------------|
A|----------------------------------------------------------------------------|
D|--------5-----5-----5------5-555-55------5-----5-----5--------5-555-50------|

E|----------------------------------------------------------------------------|
B|----------------------------------------------------------------------------|
G|----------------------------------------------------------------------------|
D|-----0h2---2h4---5h4---2h0------------0h2---2h4---5h4---2h0-----------------|
A|----------------------------------------------------------------------------|
D|--------0-----0-----0------0-000-00------0-----0-----0--------0-000-05------|

E|----------------------------------------------------------------------------|
B|----------------------------------------------------------------------------|
G|----------------------------------------------------------------------------|
D|-----0h2---2h4---5h4---2h0------------0h2---2h4---5h4---2h0---5-0-----------|
A|--------------------------------------------------------------5-0-----------|
D|--------5-----5-----5------5-555-55------5-----5-----5--------5-0-----------|
Página 1 / 1

Letras e título
Acordes e artista

resetar configurações
OK