Cifra Club

Aprenda

Million Pieces

Newsboys

Cifra: Principal (violão e guitarra)
tom: A
#This file is the author's own work and represents their interpretation of the#
#song. You may only use this file for private study, scholarship, or research.#


Album: Thrive
Transcribed by: Joel Hickey
Email: *

I didn't see any tabs for this song, so i decided to
do one myself. This was tabbed from the live performance
on the new dvd at the rock and roll hall of fame.
Please bare with me as this is my first attempt with
guitar tablature. Enjoy.
If you have any corrections feel free
to email them to *
Listen to the song for strum pattern and timing.
Tuning: Standard

Intro (1X)
------------------------------------------------------------------------------
------------------------------------------------------------------------------
-99999x99x99x9----------------------------------------------------------------
-99999x99x99x9--99999x99x99x9--77777x77x77x7--99999x99x99x9-------------------
-77777x77x77x7--99999x99x99x9--77777x77x77x7--99999x99x99x9-------------------
----------------77777x77x77x7--55555x55x55x5--77777x77x77x7-------------------

Chorus (2X)
------------------------------------------------------------------------------
------------------------------------------------------------------------------
-99999x99x99x9----------------------------------------------------------------
-99999x99x99x9--99999x99x99x9--77777x77x77x7--99999x99x99x9-------------------
-77777x77x77x7--99999x99x99x9--77777x77x77x7--99999x99x99x9-------------------
----------------77777x77x77x7--55555x55x55x5--77777x77x77x7-------------------

Verse (2X) (Not sure of strum pattern or reps, just compromise)
------------------------------------------------------------------------------
------------------------------------------------------------------------------
-9-9-9-9-99-------------------------------------------------------------------
-9-9-9-9-99-9-9-9-9-99-6-6-6-6-66-4-4-4-4-44----------------------------------
-7-7-7-7-77-9-9-9-9-99-6-6-6-6-66-4-4-4-4-44----------------------------------
------------7-7-7-7-77-4-4-4-4-44-2-2-2-2-22----------------------------------
                                                                              

Bridge Part 1 of 2 (you gotta lay them burdens down......)
------------------------------------------------------------------------------
------------------------------------------------------------------------------
------------------------------------------------------------------------------
-xx444x4/9-99-xx444x4/9-99-xx444x4/9-99x-11-11-11xx9-9-9----------------------
-xx444x4/9-99-xx444x4/9-99-xx444x4/9-99x--9--9--9xx9-9-9----------------------
-xx222x2/7-77-xx222x2/7-77-xx222x2/7-77x--9--9--9xx7-7-7----------------------

Bridge Part 2 of 2
------------------------------------------------------------------------------
------------------------------------------------------------------------------
------------------------------------------------------------------------------
-xx444x4/9-99-xx444x4/9-99-xx444x4/9-99xx9-11-11-11xx11-11-11xx9-9-9xx9-9-----
-xx444x4/9-99-xx444x4/9-99-xx444x4/9-99xx9-11-11-11xx11-11-11xx9-9-9xx9-9-----
-xx222x2/7-77-xx222x2/7-77-xx222x2/7-77xx7--9--9--9xx-9--9--9xx7-7-7xx7-7-----
                                                                              

(do doo do doo doo do-do-do-do do doo) part: (1st part played very softly)
------------------------------------------------------------------------------
------------------------------------------------------------------------------
-11-11--11-11--11-11----------------------------------------------------------
-11-11--11-11--11-11--11-11--11-11--11-11--9-9--9-9--9-9--11-11--11-11--11-11-
--9--9---9--9---9--9--11-11--11-11--11-11--9-9--9-9--9-9--11-11--11-11--11-11-
-----------------------9--9---9--9---9--9--7-7--7-7--7-7---9--9---9--9---9--9-

***=strummed down a bunch of times fast and switch to chorus (last chord)
------------------------------------------------------------------------------
------------------------------------------------------------------------------
-11-11--11-11--11-11----------------------------------------------------------
-11-11--11-11--11-11--11-11--11-11--11-11--9-9--9-9--9-9--11*-----------------
--9--9---9--9---9--9--11-11--11-11--11-11--9-9--9-9--9-9--11*----------------- 
-----------------------9--9---9--9---9--9--7-7--7-7--7-7---9*-----------------
Composição de Peter Furler / Steve Taylor
798 exibições
    • ½ Tom
    • A
    • Bb
    • B
    • C
    • Db
    • D
    • Eb
    • E
    • F
    • F#
    • G
    • Ab
  • Adicionar à lista

    0 comentários

    Ver todos os comentários
    00:00 / 00:00
    outros vídeos desta música
    repetir qualidade Automático
    Outros vídeos desta música
    00:00 / 00:00
    Automático

    Cifra Club Pro

    Aproveite o Cifra Club com benefícios exclusivos e sem anúncios
    Cifra Club Pro
    Aproveite o Cifra Club com benefícios exclusivos e sem anúncios
    OK