Cifra Club

Louco Por Você

Nextte

Cifra: Principal (violão e guitarra)
tom: G
Intro:
             G5               C5        D5           Am5
E|----------------------------------------------|
B|----------------------------------------------|
G|--2-0-----0-2-0-0-----------------------------|
D|--------2---------------2-------2-2-2-2-3-3-3-|
A|----------------------------------------------|
E|----------------------------------------------|
       C5     G5         C5       Am5           C
E|----------------------------------------------|
B|----------------------------------------------|
G|--2-0-----0-2-3-3-2---------------------------|
D|--------2------------------0-0-0-0-3-2--0-----|
A|----------------------------------------------|
E|----------------------------------------------|

G5         C5   D5                 Am5
Um cento dia,quando a noite surgiu
C5    G5        C5              D5              Am5
Eu estava dormindo acordei e vi que você sumiu
C5    G5           C5     D5                   Am5
Até hoje me arrependo,de ter brigado com você
C5      G5                 C5          D5                   Am5   C5  Am5
Sou um garoto que esta sofrendo com muita vontade de te ver

Refrão:
    G5                     C5
Sou louco,sou louco,sou louco por você
  D5                       Am5           C5
garota dos sonhos que não da pra esquecer
    G5                    C5               D5 Am5
Sou louco,sou louco,não consigo esquecer você
             G5               C5        D5           Am5
E|-----------------------------------------------|
B|-----------------------------------------------|
G|--2-0-----0-2-0-0------------------------------|
D|--------2---------------2--------2-2-2-2-3-3-3-|
A|-----------------------------------------------|
E|-----------------------------------------------|
       C5     G5         C5       Am5           C
E|-----------------------------------------------|
B|-----------------------------------------------|
G|--2-0-----0-2-3-3-2----------------------------|
D|--------2------------------0-0-0-0-3-2--0------|
A|-----------------------------------------------|
E|-----------------------------------------------|

G5           C5    D5                   Am5
Todo dia eu fico pensando na beira do mar
C5      G5               C5                  D5          Am5
Tem vezes que eu amanheço eu gosto muito de focar sozinho e pensar
G5     C5      D5                   Am5
Agora garota,volta de novo para mim
C5   G5             C5                D5                 Am5  C5  Am5
Se não eu vou gritar eu vou gritar até chegar o meu fim

Refrão:
    G5                     C5
Sou louco,sou louco,sou louco por você
  D5                       Am5           C5
garota dos sonhos que não da pra esquecer
    G5                    C5               D5 Am5
Sou louco,sou louco,não consigo esquecer você
voce... voce... voce
00:00 / 00:00
Outros vídeos desta música
Repetir
Outros vídeos desta música
Composição de matheus netto
Colaboração e revisão:
  • mnosk8
62 exibições
    • ½ Tom
    • A
    • Bb
    • B
    • C
    • Db
    • D
    • Eb
    • E
    • F
    • F#
    • G
    • Ab
  • Adicionar à lista

    0 comentários

    Ver todos os comentários

    Conseguiu tocar?

    0 Tocaram 0 Ainda não

    Grave um vídeo tocando Louco Por Você e nos envie!

    Entre para oCifra Club PRO

    Tenha acesso a benefícios exclusivos no App e no Site

    • Chega de anúncios

    • Prioridade de compra em lançamentos

    • Mais recursos no app do Afinador

    • Atendimento Prioritário

    • Descontos nos produtos Cifra Club

    • Ajude a produzir mais conteúdo

    00:00 / 00:00

    Cifra Club Pro

    Aproveite o Cifra Club com benefícios exclusivos e sem anúncios
    Cifra Club Pro
    Aproveite o Cifra Club com benefícios exclusivos e sem anúncios
    OK