Cifra Club

Fire Away

Niall Horan

Cifra: Versão 2 (violão e guitarra)
tom: Db
[Solo]
  
E|--------------|-----------------------------|-----------------------------|
B|--------------|-----------------------------|-----------------------------|
G|--------------|-----------------------------|-----------------------------|
D|-----------4--|-4------------------------4--|/6------------------------4--|
A|-4--4-4-h6----|----------------4--4-4-h6----|----------------4--4-4-h6----|
E|--------------|-----------------------------|-----------------------------|

E|-------------------------|-----------------------------|
B|-------------------------|-----------------------------|
G|-------------------------|-----------------------------|
D|8-----------------8--6-6|--------------------------4---|
A|-------------------------|----------------4--4-4-h6----|
E|-------------------------|-----------------------------|
00:00 / 00:00
Outros vídeos desta música
Repetir
Outros vídeos desta música
Composição de John Ryan / Julian Bunetta / Niall Horan / Ruth-Anne
Colaboração e revisão:
  • Amanda Silva
183 exibições
    • ½ Tom
    • A
    • Bb
    • B
    • C
    • Db
    • D
    • Eb
    • E
    • F
    • F#
    • G
    • Ab
  • Adicionar à lista

    0 comentários

    Ver todos os comentários

    Conseguiu tocar?

    0 Tocaram 0 Ainda não

    Grave um vídeo tocando Fire Away e nos envie!

    Entre para oCifra Club PRO

    Tenha acesso a benefícios exclusivos no App e no Site

    • Chega de anúncios

    • Prioridade de compra em lançamentos

    • Mais recursos no app do Afinador

    • Atendimento Prioritário

    • Descontos nos produtos Cifra Club

    • Ajude a produzir mais conteúdo

    00:00 / 00:00

    Cifra Club Pro

    Aproveite o Cifra Club com benefícios exclusivos e sem anúncios
    Cifra Club Pro
    Aproveite o Cifra Club com benefícios exclusivos e sem anúncios
    OK