Cifra Club

Aprenda

Trying Not To Love You

Nickelback

Cifra: Principal (violão e guitarra)
tom: Bm
[Intro] Bm  A9  E 
        Bm  A9  E

E|-----------------------------------------|
B|-----------------------------------------|
G|---6h7p6----------7-6--------------------|
D|---------9-7-9---------7-7/9-------------|
A|---------------9-------------------------|
E|-----------------------------------------|

E|-----------------------------------------|
B|-----------------------------------------|
G|---6h7p6----------7-6-----7/9~~----------|
D|---------9-7-9---------7-----------------|
A|---------------9-------------------------|
E|-----------------------------------------|

E|-----------------------------------------|
B|-----------------------------------------|
G|---6h7p6---------------------------------|
D|---------9-7-9---------------------------|
A|-----------------------------------------|
E|-----------------------------------------|

Bm    A      E                      Bm
You call to me, and I fall at your feet
             A             E
How could anyone ask for more

[Riff 1]
E|-----------------------------------------|
B|-----------------------------------------|
G|---6h7p6---------------------------------|
D|---------9-7-9---------------------------|
A|-----------------------------------------|
E|-----------------------------------------|

Bm        A    E                        Bm
And our time apart, like knives in my heart
             A            E
How could anyone ask for more

  Em                   F#m
But if there's a pill to help me forget,
      G               A
God knows I haven't found it yet
          Em                G
But I'm dying to, God I'm trying to
                          D                 A
Cause trying not to love you, only goes so far
                  Bm                    G
Trying not to need you, is tearing me apart
                        D                            A
Can't see the silver lining, from down here on the floor
                     Bm                           G
And I just keep on trying, but I don't know what for
                      Em          G
Cause trying not to love you
                        Bm  A  E
Only makes me love you more
                        Bm  A  E
Only makes me love you more

[Segunda Parte]

Bm         A      E                      Bm
And this kind of pain, only time takes away
                  A                E
That's why it's harder to let you go

[Riff 2]

E|-----------------------------------------|
B|-----------------------------------------|
G|----9-11-7-------------------------------|
D|-----------------------------------------|
A|-----------------------------------------|
E|-----------------------------------------|

Bm          A      E                      Bm
And nothing I can do, without thinking of you
                  A                E
That's why it's harder to let you go

[Riff 2]

E|-----------------------------------------|
B|-----------------------------------------|
G|----9-11-7-------------------------------|
D|-----------------------------------------|
A|-----------------------------------------|
E|-----------------------------------------|

  Em                   F#m
But if there's a pill to help me forget,
      G               A
God knows I haven't found it yet
          Em                G
But I'm dying to, God I'm trying to
                          D                 A
Cause trying not to love you, only goes so far
                  Bm                    G
Trying not to need you, is tearing me apart
                        D                            A
Can't see the silver lining, from down here on the floor
                     Bm                           G
And I just keep on trying, but I don't know what for
                      Em          G
Cause trying not to love you
                        D        
Only makes me love you more

                 A                       Em
So I sit here divided, just talking to myself
                         G
Was it something that I did
                    D
Was there somebody else
                         A                            Em
When a voice from behind me, that was fighting back tears
                      G                              Em
Sat right down beside me, and whispered right in my ear
                    G
Tonight I'm dying to tell you

[Final]
                       D                   A
That trying not to love you, only went so far
                Bm                       G
Trying not to need you, was tearing me apart
                       D                               A
Now I see the silver lining, from what we're fighting for
                         Bm                       G
And if we just keep on trying, we could be much more
                       Em      G
Cause trying not to love you
                           Em      G
Oh, yeah, trying not to love you
                        Bm  A  E
Only makes me love you more
                        Bm  A  E
Only makes me love you more
Composição de Brad Warren / Brett Warren / Chad Kroeger / Ryan Peake
Colaboração e revisão:
  • Renata Netto
  • Denise Alves
  • Leonardo Cruz
48.694 exibições
    • ½ Tom
    • Am
    • Bbm
    • Bm
    • Cm
    • C#m
    • Dm
    • Ebm
    • Em
    • Fm
    • F#m
    • Gm
    • G#m
  • Adicionar à lista

    0 comentários

    Ver todos os comentários

    Conseguiu tocar?

    23 Tocaram 0 Ainda não

    Grave um vídeo tocando Trying Not To Love You e nos envie!

    00:00 / 00:00
    Outros vídeos desta música
    Repetir Qualidade Automático
    Outros vídeos desta música
    00:00 / 00:00
    Automático

    Cifra Club Pro

    Aproveite o Cifra Club com benefícios exclusivos e sem anúncios
    Cifra Club Pro
    Aproveite o Cifra Club com benefícios exclusivos e sem anúncios
    OK