Cifra Club

The Phantom Of The Opera

Nightwish

Cifra: Principal (violão e guitarra)
tom: Bb (forma dos acordes no tom de C) Afinação: D G C F A D
Afinação 1 tom abaixo: D, G, C, F, A, D


E|-----------------------------------------
B|---5--10--5---8---6-6-----3---8---3---5--
G|-----------------------------------------   2X
D|--------------0--------------------------
A|--------------------------------------0--
E|--------------------------3--------------

E|-----------------------------------------
B|--------------5---3-3-----3---8---3---5--
G|-----------------------------------------
D|-----7---10------------------------------
A|--7-----------0-----------------------0--
E|--------------------------3--------------

E|-----------------------------------------
B|--5--10---8-6-5-3-1----------------------
G|--------------------4-2-0----------------
D|--------------------------5--3-3-3-------
A|-----0-----------------------------7--0--
E|--------------------------------------0--

         G G#  G# A Bb B C    C  C   C    C  C   C     C  B Bb A G#
E|--------------------------------------------------------------
B|--------------------------------------------------------------
G|--------------------------------------------------------------
D|--------------------------------------------------------------
A|-----5-6---6-7-8-9---10---10-10--10---10-10--10----10-9-8-7-6-
E|-----3-4---4-5-6-7---8----8--8---8----8--8---8-----8--7-6-5-4-

        G G# G# A Bb B C                 G#  Bb   C
E|-----------------------------/----------------------------------
B|-----------------------------/----------------------------------
G|-----------------------------/----------------------------------
D|-----------------------------/----------------------------------
A|-----5-6--6-7-8-9-10~--------/---------6---8---10---------------
E|-----3-4--4-5-6-7-8~---------/---------4---6---8----------------


In sleep he sang to me, in dreams he came,

That voice which calls to me,

And speaks my name.
            G#     Bb            C
And do I dream again? For now I find
                                                  C
E|---------------------------------------------------------------
B|---------------------------------------------------------------
G|---------------------------------------------------------------
D|---------------------8------------|-----------10---------------
A|------10--10-10--10-----10--11-10-|-----------10---------------
E|------8------8---8------8---------|-----------8----------------

                         C
The phantom of the opera is here

Inside my mind.

FAZ A INTRODUÇÃO
        G#    G# A Bb B C        C B Bb A G#  G G#  G# A Bb B C
E|--------------------------------------------------------------
B|--------------------------------------------------------------
G|--------------------------------------------------------------
D|--------------------------------------------------------------
A|----6----6-7-8-9---10-------10-9-8-7-6----5-6---6-7-8-9-10----
E|----4----4-5-6-7---8--------8--7-6-5-4----3-4---4-5-6-7-8-----

Sing once again with me our strange duet;

My power over you grows stronger yet.
              G#      Bb               C
I know you turn from me to glance behind,
REPETE A PARTE DA TARJA
The phantom of the opera is there

Inside your mind.



Those who have seen your face

Draw back in fear.

I am the mask you wear,



It's me they hear.

                    Bb
Your spirit and my voice in one combined;
E|-----------------------------------
B|-----------------------------------
G|-----------------------------------
D|---------------------8-------------
A|------10--10-10--10-----10--11-10--
E|------8------8---8------8----------

The phantom of the opera is here

Inside my your mind.


He's there the phantom of the opera.

Beware the phantom of the opera.



In all your fantasies, you always knew

That man and mystery

Were both in you.



And in this labyrinth where night is blind,

The Phantom of the opera is here

Inside my your mind.

Sing, my angel of music!


He's there,the phantom of the opera!
Danilo Assunção dos Santos
Composição de Andrew Lloyd Webber / Tim Rice
Colaboração e revisão:
  • Luis Henrique
  • Danilo Assunção
84.975 exibições
  • Simplificar cifra
    • ½ Tom
    • A
    • Bb
    • B
    • C
    • Db
    • D
    • Eb
    • E
    • F
    • F#
    • G
    • Ab
  • Adicionar à lista

    0 comentários

    Ver todos os comentários

    Conseguiu tocar?

    8 Tocaram 1 Ainda não

    Grave um vídeo tocando The Phantom Of The Opera e nos envie!

    00:00 / 00:00
    Outros vídeos desta música
    Repetir Qualidade Automático
    Outros vídeos desta música
    00:00 / 00:00
    Automático

    Cifra Club Pro

    Aproveite o Cifra Club com benefícios exclusivos e sem anúncios
    Cifra Club Pro
    Aproveite o Cifra Club com benefícios exclusivos e sem anúncios
    OK