Cifra Club

Aprenda

Walking in the air

Nightwish

Cifra: Principal (violão e guitarra)
tom: F
(Essa é a introdução, que é tocada 2x, depois continua a música dedilhada)

E|-|-----1-1-0-------------||(solo de piano adaptado para violão ou guitarra)
B|-|---3-3-3-1---3-3-3---1-||
G|-|--2-----2-0-2--2-2-0-0-||
D|-|-0---------0-----------||
A|-|-----------------------||
E|-|-----------------------||
      Dm
We're walking in the air
                              C
We're floating in the moonlit sky
    Gm                     Bb     C      Dm (solo da introdução 1X)
The people far below are sleeping as we fly

    Dm
**I'm holding very tight
                           C
I'm riding in the midnight blue
    Gm                   Bb    C          Dm  F Dm Bb Gm Dm
I'm finding I can fly so high above with you

(aqui entra os outros instrumentos)
Dm
Far across the world
                        C
The villages go by like trees
    Gm
The rivers and the hills
    Bb      C       Dm
The forests and the streams

A             Dm
Children gaze open mouth
G           C
Taken by surprise
Cm     F            Bb           A
Nobody down below believes their eyes

      Dm
We're surfing in the air
                             C
We're swimming in the frozen sky
       Gm
We're drifting over ice
Bb        C        Dm  (F Dm) Bb Gm Dm
Mountains floating by

A         Dm          G           C
Suddenly swooping low on an ocean deep
Cm            F              Bb       A
Arousing of a mighty monster from its sleep

Solo:
-------------------------------------------------------------------------
--------15-15--13-13-------------15-15--13-13----------------------------
--14-14---------------14~---14-14--------------14~---10-10/12-14-12------
-------------------------------------------------------------------------
-------------------------------------------------------------------------
-------------------------------------------------------------------------

-------------------------------------------------------------------------
-------------------------------------------------------------------------
--12-14-14/15-14-12------------------------------------------------------
--------------------12-14-14/15-14-12----10-12-10------------------------
--------------------------------------------------12---------------------
-------------------------------------------------------------------------

-------------------------------------------------------------------------
-------15----17-18-17-15-13-15----------15---17-18-17-18-18/20-22-20-----
----14----14-------------------14----14---14-----------------------------
-------------------------------------------------------------------------
-------------------------------------------------------------------------
-------------------------------------------------------------------------

------15-17-17/18-17-15--------------------------------------------------
---------------------15-17-17/18-17-15--13-15-13-------------------------
-------------------------------------------------14----------------------
-------------------------------------------------------------------------
-------------------------------------------------------------------------
-------------------------------------------------------------------------

      Dm
We're walking in the air
                               C
We're floating in the midnight sky
    Gm                   Bb     C        Dm
And everyone who sees us greets us as we fly

** (continuar I'm holding very tight...)
Composição de David Blake
Colaboração e revisão:
  • Heron Sato
  • Ana Ranzani
21.492 exibições
    • ½ Tom
    • A
    • Bb
    • B
    • C
    • Db
    • D
    • Eb
    • E
    • F
    • F#
    • G
    • Ab
  • Adicionar à lista

    0 comentários

    Ver todos os comentários

    Conseguiu tocar?

    3 Tocaram 0 Ainda não

    Grave um vídeo tocando Walking in the air e nos envie!

    00:00 / 00:00
    Outros vídeos desta música
    Repetir Qualidade Automático
    Outros vídeos desta música
    00:00 / 00:00
    Automático

    Cifra Club Pro

    Aproveite o Cifra Club com benefícios exclusivos e sem anúncios
    Cifra Club Pro
    Aproveite o Cifra Club com benefícios exclusivos e sem anúncios
    OK