Cifra Club

Closer

Nine Inch Nails

Tab de baixo: Versão 2
Intro/Verse

|--5-------3-----5----3p0--|
|-------------------------3|
|3----3-3-3----3----3------|
|--------------------------|

Chorus

|---------------|
|---------------|
|--------1-1-2-2|
|1-1-1-1--------|

That's pretty much it, I don't have the rest of this song but that the main part.
00:00 / 00:00
Outros vídeos desta música
Repetir
Outros vídeos desta música
Composição de Trent Reznor
108 exibições

0 comentários

Ver todos os comentários
00:00 / 00:00

Cifra Club Pro

Aproveite o Cifra Club com benefícios exclusivos e sem anúncios
Cifra Club Pro
Aproveite o Cifra Club com benefícios exclusivos e sem anúncios
OK