Enviar cifraEntrar

All Apologies Unplugged

Nirvana

Cifra: Principal
exibições 3.236
Tom: G
PARTE 1                 PARTE 2

E|--------------------- |--------------------------  
B|--------------------- |--------------------------
G|--------------------- |--------------------------
D|--------------------- |---------9/12-10-9-------
A|---9-10-9-10/12-10-9- |---9-10-9------------------
D|-0------------------- |-0------------------------



PARTE 3                   PARTE 4

E|----------------------|E|---------------------- 
B|----------------------|B|----------------------
G|----------------------|G|------------11-11-9---
D|----------------------|D|--------------------12
A|---9-10-9-10/12-10-9--|A|---9-10-9-------------
D|-0--------------------|D|-0--------------------
  • 1
  • 2
  • 3
  • 4
  • 5
  • 6
  • 7
  • 8
  • 9
  • 10
  • 11
  • 12
    Acordes para:
      Colaboração e revisão:
      • Joao Victor

      0 comentários

        mostrar mais comentários

        Conseguiu tocar?

        0tocaram1ainda não

        Grave um vídeo tocando All Apologies Unplugged e mande pra gente!

        00:00 / 00:00
        outros vídeos desta música
        repetirqualidadeautomática
        • automática
        Outro vídeos desta música
          00:00 / 00:00
          automática
          • automática
          Acordes para:violão e guitarra
          dificuldadeexibiçõescontribuições
          fecharplay/pause subir/descer velocidade
            Acordes para:violão e guitarra
            acordes
            fechar
            OK