Cifra Club

Come As You Are

Nirvana

Cifra: Versão 5
exibições 50.993
Tom: F# (com acordes na forma de G) Afinação: Eb Ab Db Gb Bb Eb
(intro / riff 3x)

E|-------------------------------------------|-------------------------------------------|
B|-------------------------------------------|-------------------------------------------|
G|--------------0-----0--------------2-------|-2------------0-----0--------------2-------|
D|-0--0--1--2------2-----2--2--1--0-----0--0-|----0--1--2------2-----2--2--1--0-----0--0-|
A|-------------------------------------------|-------------------------------------------|
E|-------------------------------------------|-------------------------------------------|

    Em7    D
Come as you are
        Em7  D            Em7
As you were, as I want you to be
       D
As a friend
       Em7   D         Em7
As a friend, as an old enemy
           D
Take your time
      Em7           D                Em7
Hurry up, the choice is yours, don't be late
        D
Take a rest
       Em7     D
As a friend, as an old...

   Em    G  (4x)
   Memory

(intro / riff)

E|-------------------------------------------|-------------------------------------------|
B|-------------------------------------------|-------------------------------------------|
G|--------------0-----0--------------2-------|-2------------0-----0--------------2-------|
D|-0--0--1--2------2-----2--2--1--0-----0--0-|----0--1--2------2-----2--2--1--0-----0--0-|
A|-------------------------------------------|-------------------------------------------|
E|-------------------------------------------|-------------------------------------------|

   Em7      D
Come dowsed in mud
            Em7   D           Em7
Soaked in bleach, as I want you to be
       D
As a trend,
       Em7   D
As a friend, as an old...

   Em    G  (4x)
   Memory

 A5       C5             A5            C5
   And I swear that I don't have a gun
          A5            C5
   No, I don't have a gun
          A5            C5
   No, I don't have a gun

(solo 4x)
E|-------|-----------------------------------------------|
B|-------|-3---5-------3---5-------3---5b-----5---3------|
G|-4brbr-|--------4~~---------4~~--------------------4~~-|
D|-------|-----------------------------------------------|
A|-------|-----------------------------------------------|
E|-------|-----------------------------------------------|

   Em    G  (4x)
   Memory

A5      C5            A5            C5
   And I swear that I don't have a gun
          A5            C5
   No, I don't have a gun
          A5            C5
   No, I don't have a gun
          A5            C5
   No, I don't have a gun
       A5            C5
   No, I don't have a gun

             Em                    G
E|-------------------------------------------|
B|-------------------------------------------|
G|--------------0-----0--------------2-------|
D|-0--0--1--2------2-----2--2--1--0-----0--0-|
A|-------------------------------------------|
E|-------------------------------------------|

(riff)
             Em                    G                       Em
E|-------------------------------------------|-------------|
B|-------------------------------------------|-------------|
G|-2------------0-----0--------------2-------|-2-----------|
D|----0--1--2------2-----2--2--1--0-----0--0-|----0--1--2--|
A|-------------------------------------------|-------------|
E|-------------------------------------------|-------------|

   Em    G   Em    G
   Memory
   Em    G   Em
   Memory.
Acordes para:
    Composição: Dave Grohl / Krist Novoselic / Kurt CobainColaboração e revisão:
    • Aquiles Gonçalves
    • Renan Santos

    0 comentários

      mostrar mais comentários
      00:00 / 00:00
      outros vídeos desta música
      repetirqualidadeautomática
      Outro vídeos desta música
        00:00 / 00:00
        automática
        OK