Cifra Club

Gallons Of Rubbing Alcohol Flow Through The Strip

Nirvana

Cifra: Principal
exibições 15.647
Tom: G (com acordes na forma de G#) Afinação: Eb Ab Db Gb Bb Eb
Riff:
(Obs: Este é o riff básico, há umas variações ao decorrer da música, mas é tudo relacionado a isto)
|----------------------------------------------------|
|----------------------------------------------------| 
|----2--------------------2-------------------------| 
|----------------0-------------------------0--------|
|--3---3----------------3-- --3--------------------| 
|-----------2----------------------2----------------| 

Riff 2:

|--------------------------------------|
|--5--5-5-4-4-4-3-3-3-2-2-2------------|
|--5--5-5-4-4-4-3-3-3-2-2-2------------|
|--5--5-5-4-4-4-3-3-3-2-2-2------------|
|--------------------------------------| 
|--------------------------------------| 

Solo:

|----------------------------------------------------|
|-2-/-16---16--18-18-18-18-18-18-16-18-18-18-18-18-18|
|-2-/-16---------------------------------------------| 
|-2-/-16--------------------------------------------|
|-2-/-16---------------------------------------------| 
|----------------------------------------------------| 
                                                Hold
|------------------------------------16b-(18)--------|
|--16--16-14-13-12~~~~~~---16\-/16-------------------| 
|--------------------------16\-/16-------------------| 
|--------------------------16\-/16-----------16b-(16)|
|--------------------------16\-/16-------------------| 
|----------------------------------------------------| 
      Gradual release
|----------------------------------------------------|
|----------------------------------------------------| 
|----------------------------------------------------| 
|-(16)-(16)-(16)-------------------------------------|
|----------------------------------------------------| 
|----------------------------------------------------| 


Letra:

-Gallons of Rubbing Alcohol Flow Through the Strip-


It hurts when you have to press that dull little thing 
that you're only supposed to use once and then discard 
Where do you put it? In the garbage can, my honest friend 
My shyness, pet her flow 

She's only been five months late, 
even though we haven't had sex for a week 

A meal a day, a meal, I say 
And my heart's made my... 

Somebody else already used the word aurora borealis 
She was tied up in chains, and someone helped 
her in the freezer 

She's only five weeks late, 
and I haven't had a date forever... 
ever...ever...forever! 

Wish I had more...more opportunity, 
more chances to remember some things 
so I couldn't have so much pressure on my... 
on my...on my, um...ah, on my...um...um...
I forget 

We'd have so much more diversity, 
and so much more input, so much more creative flow, 
if we had someone in school, a GIT... 
GIT...geeks...in...town 
Ha!...Come on, Dave, think of one... 
[Dave Grohl]= {Girls In Trouble} 
It should be GIC, geeks with Charvels 
No, GWC 

Fuck, man, this is a waste of time! 
(laughs) One more solo? Yeahhhhhhhhh! 
Yeaaaahhhhh! 

You're personally responsible for... 
the entire strip...to be washed away... 
cleansed...as if gallons of, hm, rubbing alcohol 
flowed through the strip and were set on fire 

It didn't just singe the hair, it made it 
straight 

And then Perry Ellis came along with his broom, 
and his...silk... 
and he...he erected a beautiful city... 
a city of stars
Acordes para:
    Composição: Kurt CobainColaboração e revisão:
    • Álvaro Paiva

    0 comentários

      mostrar mais comentários

      Conseguiu tocar?

      3tocaram0ainda não

      Grave um vídeo tocando Gallons Of Rubbing Alcohol Flow Through The Strip e mande pra gente!

      00:00 / 00:00
      outros vídeos desta música
      repetirqualidadeautomática
      Outro vídeos desta música
        00:00 / 00:00
        automática
        OK