Cifra Club

Half The Man I Used To Be

Nirvana

Tab de baixo: Principal
exibições 1.060
Tabbed By :  Greg T. (chickenfrmheck)

Tuning:  standard

intro notes, listen to song for rhythm and picking pattern
G|---------------------------------------------------------------------------|
D|---------0-2---------------------------------------------------------------|
A|-3-2---2-------3-2---------------------------------------------------------|
E|-----0-------0-----0-x-x---------------------------------------------------|

verse notes, listen to song for rhythm and picking pattern
G|---------------------------------------------------------------------------|
D|---------------------------------------------------------------------------|
A|---3-2---------------------------------------------------------------------|
E|-0-----0-------------------------------------------------------------------|

pre-chorus
G|---------------------------------------------------------------------------|
D|----------------0-2----------------0-2---v listen for patterns/rhyth. v----|
A|--------------2------------------2-------0-----0-----0-3-5-----------------|
E|-0-0-00-0-0-0-------0-0-00-0-0-0-------3---0-3---0-3-----------------------|

chorus
G|---------------------------------------------------------------------------|
D|---------------0-2---------------------------------------------------------|
A|---------0-0-2-------------0-0-0-0-1-2-------------------------------------|
E|-0-0-3-3-----------0-0-3-3-------------------------------------------------|

fill (before verse)
G|---------------------------------------------------------------------------|
D|-14-13----12-11----10-9----------------------------------------------------|
A|-------14-------12------7--------------------------------------------------|
E|---------------------------------------------------------------------------|

quiet part/guitar solo
G|---------------------------------------------------------------------------|
D|---------------------------------------------------------------------------|
A|---------------------------------------------------------------------------|
E|-0holdfourcounts-0holdfourcounts-0holdfourcounts-0holdfourcounts-----------|

fill(during last pre-chorus)
sorry, but this one's kinda hard to hear, so it might be wrong.
G|---------------------------------------------------------------------------|
D|-----2-0---0-0-5-4-0-------------------------------------------------------|
A|-3-3-----3-----------------------------------------------------------------|
E|---------------------------------------------------------------------------|

ending(like, very last few notes.)
G|---------------------------------------------------------------------------|
D|---------------------------------------------------------------------------|
A|---------0-0-0-0-1-2-------------------------------------------------------|
E|-0-0-3-3-------------------------------------------------------------------|

| x – Either play a muted note, or mute the strings and lightly hit them.
===============================================================================
Composição: desconhecido

0 comentários

    mostrar mais comentários

    Conseguiu tocar?

    0tocaram0ainda não

    Grave um vídeo tocando Half The Man I Used To Be e mande pra gente!

    00:00 / 00:00
    outros vídeos desta música
    repetirqualidadeautomática
    Outro vídeos desta música
      00:00 / 00:00
      automática
      OK