Other Improv

Nirvana

Composição de: Kurt Cobain
tom: C
Riff principal 
E|---------------||
B|---------------||
G|-7-----5-5-3-2-||
D|-7--2--5-5-3-2-||
A|-5--2--3-3-1-0-||
E|----0----------||

Outro Riff 
E|-----------------------------------------------------------------||
B|-----------------------------------------------------------------||
G|-7-7-7-7-7-7-7-7-5-5-5-5-5-5-5-5-3-3-3-3-3-3-3-3-3-3-3-3-3-3-3-3-||
D|-7-7-7-7-7-7-7-7-5-5-5-5-5-5-5-5-3-3-3-3-3-3-3-3-3-3-3-3-3-3-3-3-||
A|-5-5-5-5-5-5-5-5-3-3-3-3-3-3-3-3-1-1-1-1-1-1-1-1-1-1-1-1-1-1-1-1-||
E|-----------------------------------------------------------------||
Página 1 / 1

Letras e título
Acordes e artista

resetar configurações
OK