Enviar cifraEntrar

Smells Like Teen Spirit

Nirvana

Cifra: Principal
exibições 1.852.461
Tom: C#
Introdução: F5  Bb5  Ab5  Db5
            F5  Bb5  Ab5  Db5


Primeira Parte:

(Riff 1)


E|----1------------------------------------------------|
B|-1---------------------------------------------------|
G|-----------------------------------------------------|
D|-----------------------------------------------------|
A|-----------------------------------------------------|
E|-----------------------------------------------------|


Load up on guns
Bring your friends
It's fun to lose 
And to pretend
She's over-bored 
And self-assured
Oh, no, I know 
A dirty word

(Riff 2)


E|----1-----1-----1-----1------------------------------|
B|-1-----1-----1-----1---------------------------------|
G|-----------------------------------------------------|
D|-----------------------------------------------------|
A|-----------------------------------------------------|
E|-----------------------------------------------------|


Hello, hello, hello, how low
Hello, hello, hello, how low
Hello, hello, hello, how low
Hello, hello, hello


Primeiro Refrão:

          F5
With the lights out
Bb5        Ab5
It's less dangerous
 Db5    F5
Here we are now
Bb5   Ab5
Entertain us
Db5      F5
I feel stupid 
Bb5     Ab5
And contagious
 Db5    F5
Here we are now
Bb5   Ab5
Entertain us
Db5  F5
A mulatto
Bb5   Ab5
An albino
Db5    F5
A mosquito
 Bb5  Ab5
My libido
 Db5
Yeah, yey


Passagem: F5  E5  F5  Gb5
          F5  E5  F5  Bb5  Ab5


E|-----------------------------------------------------|
B|-----------------------------------------------------|
G|--------------3b-------------------------------------|
D|-3-3-----4-4-----------------------------------------|
A|-3-3-2-3-4-4-----------------------------------------|
E|-1-1-0-1-2-2-----------------------------------------|


E|-----------------------------------------------------|
B|-----------------------------------------------------|
G|-----------------------------------------------------|
D|-3-3-----8-8-6-6-------------------------------------|
A|-3-3-2-3-8-8-6-6-------------------------------------|
E|-1-1-0-1-6-6-4-4-------------------------------------|



Segunda Parte:

(Riff 1)

I'm worse 
At what I do best
And for this gift 
I feel blessed
Our little group 
has always been
And always will 
Until the end

(Riff 2)

Hello, hello, hello, how low
Hello, hello, hello, how low
Hello, hello, hello, how low
Hello, hello, hello


Segundo Refrão:

          F5
With the lights out
Bb5        Ab5
It's less dangerous
 Db5    F5
Here we are now
Bb5   Ab5
Entertain us
Db5      F5
I feel stupid 
Bb5     Ab5
And contagious
 Db5    F5
Here we are now
Bb5   Ab5
Entertain us
Db5  F5
A mulatto
Bb5   Ab5
An albino
Db5    F5
A mosquito
 Bb5  Ab5
My libido
 Db5
Yeah

Passagem: F5  E5  F5  Gb5
          F5  E5  F5  Bb5  Ab5


Solo: F5  Bb5  Ab5  Db5

(Parte 1 - 2x)


E|-----------------------------------------------------|
B|-------6\-------4--4b6r4--2--1-----------------------|
G|-5--8------1~----------------------------------------|
D|-----------------------------------------------------|
A|-----------------------------------------------------|
E|-----------------------------------------------------|


E|-----------------------------------------------------|
B|-2--1------------------------------------------------|
G|-------3--1~---3--3b5r3----1--0----------------------|
D|-----------------------------------------------------|
A|-----------------------------------------------------|
E|-----------------------------------------------------|


(Parte 2 - 4x)


E|-----------------------------------------------------|
B|-----------------------------------------------------|
G|-1--0----1--0----1--0----1p0--0----------------------|
D|---------------------------------3~------------------|
A|-----------------------------------------------------|
E|-----------------------------------------------------|



Terceira Parte:

And I forget 
Just why I taste
Oh yeah, I guess 
It makes me smile
I found it hard 
It's hard to find
Well, whatever 
Nevermind

(Riff 2)

Hello, hello, hello, how low
Hello, hello, hello, how low
Hello, hello, hello, how low
Hello, hello, hello

          F5
With the lights out
Bb5        Ab5
It's less dangerous
 Db5    F5
Here we are now
Bb5   Ab5
Entertain us
Db5      F5
I feel stupid 
Bb5     Ab5
And contagious
 Db5    F5
Here we are now
Bb5   Ab5
Entertain us
Db5  F5
A mulatto
Bb5   Ab5
An albino
Db5    F5
A mosquito
 Bb5  Ab5
My libido


Final:

Db5  F5
A   denial
Bb5    Ab5
    A denial
Db5    F5
    A denial
Bb5    Ab5
    A denial
Db5    F5
    A denial
Bb5    Ab5
    A denial
Db5    F5
    A denial
Bb5    Ab5
    A denial
Db5    F5
    A denial
  • 1
  • 2
  • 3
  • 4
  • 5
  • 6
  • 7
  • 8
  • 9
  • 10
  • 11
  • 12

    0 comentários

      mostrar mais comentários
      00:00 / 00:00
      outros vídeos desta música
      repetirqualidadeautomática
      • automática
      Outro vídeos desta música
        Capítulos
        • Tocando a música
        • Dicas Iniciais / Equipamentos
        • Acordes da música
        • Tocando a Introdução
        • Ritmo da Introdução
        • Tocando a Primeira Parte
        • Riff 1
        • Riff 2
        • Acordes da Passagem
        • Tocando o Refrão
        • Passagem
        • Tocando o Solo
        • Solo - Parte 1 de 2
        • Solo - Parte 2 de 2
        • Encerramento
        • Ficha Técnica
        00:00 / 00:00
        automática
        • automática
        fecharplay/pause subir/descer velocidade
          acordes
          fechar
          OK
          Feedback