Cifra Club

Smells Like Teen Spirit

Nirvana

Cifra: Versão 7 (violão e guitarra)
exibições 69.944
Tom: C#
introducao:
 2x sem distorcao.
4x com distorcao
 Riff 1                                             Riff 2
E |------------------------------------------       --1-------
B |------------------------------------------       -1--------
G |-------------3-3------------------6-6-----       ----------
D |--3-3-3-xxxx-3-3---0---6-6-6-xxxx-6-6--5--       ----------
A |--3-3-3-xxxx-1-1---0---6-6-6-xxxx-4-4--5--       ----------
E |--1-1-1-xxxx-------0---4-4-4-xxxx------3--       ----------

Break:2 x

E |------------------------------------------------------------------|
B |------------------------------------------------------------------|
G |------------3^fb--------------------------------------------------|
D |-3-2-3-4-4--------------------------------------------------------|
A |-3-2-3-4-4--------------------------------------------------------|
E |-1-0-1-2-2--------------------------------------------------------|

E |------------------------------------------------------------------|
B |------------------------------------------------------------------|
G |------------3^fb--------------------------------------------------|
D |-3-2-3-4-4----------3-2-3/-8-6-3----------------------------------|
A |-3-2-3-4-4----------3-2-3/-8-6-3----------------------------------|
E |-1-0-1-2-2----------1-0-1/-6-4-1----------------------------------|

VERSO NO  BAIXO
G |--------------------------------------------------------------------|
D |--------------------------------------------------------------------|
A |---------1-1-1-1------------4-4-4-4---------------------------------|
E |1-1-1-1------------4-4-4-4------------------------------------------|

BASE DO SOLO NO BAIXO E TAMBEM REFRAO
G |--------------------------------------------------------------------|
D |--------------------------------------------------------------------|
A |------1-1-1--------4-4-4--------------------------------------------|
E|1~-1~--------4~-4~--------------------------------------------------|

(F5 Bb5 G#5 C#5)base do solo

"Solo":  2x. . .
E |-------------------------------------------------------
B |-------------------------------------------------------
G |-------8--10--------8-8b--6-5--6-5---------------------
D |--10-----------6--------------------8-6--8-8b-6-5--------
A |-------------------------------------------------------
E |-------------------------------------------------------

- se quiser, fica legal colocar um slide entre o bend do dedo 8 e o dedo 6, não muda muito com a distorção
 continuacao 4x:
E |--------------------------------
B |--------------------------------
G |--------------------------------
D |--6-5-6-5-6-5-6-5---3-~-~-------
A |--------------------------------
E |--------------------------------

Riff2 + (Você pode acompanhar com F5 Bb5 G#5 C#5 abafados sem distorção)

Load up on guns, bring your friends
It's fun to lose, and to pretend
She's overboard, myself assured
I know I know, A dirty word

Riff2 + F5 Bb5 G#5 C#5 (Abafados com distorção)

Hello, hello, hello, hello. . .hello, hello, hello, hello,
Hello, hello, hello, hello. . .hello, hello, hello, hello

Riff1

With the lights out it's less dangerous
Here we are now, entertain us
I feel stupid and contagious
Here we are now, entertain us.
A mulatto, an albino, a mosquito, my libido, Yea!


break: 2X

Riff2
I'm worse at what I do best,
and for this gift I feel blessed.
I met a group that's always been
And always will until the end.

Riff2 + F5 Bb5 G#5 C#5 (Abafados com distorção)

Hello, hello, hello, hello. . .hello, hello, hello, hello,
Hello, hello, hello, hello. . .hello, hello, hello, hello

Riff1

With the lights out it's less dangerous
Here we are now, entertain us
I feel stupid and contagious
Here we are now, entertain us.
A mulatto, an albino, a mosquito, my libido, Yea!

break 2z

SOLO

(Deixe soar a ultima nota do solo, o baixo toca sozinho esta parte)

And I forget, just what the taste
And yes I guess it makes me smile
I found it hard. . .Its hard to find
Oh well, whatever, nevermind

Riff2 + F5 Bb5 G#5 C#5 (Abafados com distorção)

Hello, hello, hello, hello. . .hello, hello, hello, hello,
Hello, hello, hello, hello. . .hello, hello, hello, hello

Riff1

With the lights out it's less dangerous
Here we are now, entertain us
I feel stupid and contagious
Here we are now, entertain us.
A mulatto, an albino, a mosquito, my libido

A denial - (9x)

(Deixe soar o F5)
Acordes para:
    Composição: Dave Grohl / Krist Novoselic / Kurt Cobain Colaboração e revisão:
    • Aluisio Paula

    0 comentários

    mostrar mais comentários
    00:00 / 00:00
    outros vídeos desta música
    repetir qualidade Automático
    Outros vídeos desta música
    00:00 / 00:00
    Automático
    Capítulos
    • Tocando a música
    • Dicas Iniciais / Equipamentos
    • Acordes da música
    • Tocando a Introdução
    • Ritmo da Introdução
    • Tocando a Primeira Parte
    • Riff 1
    • Riff 2
    • Acordes da Passagem
    • Tocando o Refrão
    • Passagem
    • Tocando o Solo
    • Solo - Parte 1 de 2
    • Solo - Parte 2 de 2
    • Encerramento
    • Ficha Técnica
    OK