Cifra Club

Smells Like Teen Spirit

Nirvana

Cifra: Versão 5 (violão e guitarra)
Tom: F
Introdução/Refrão: F Bb G# C#   F Bb G# C# (x6)

Versos:
--------------------------|
-----6--------------------|
---5----------------------|
--------------------------|
--------------------------|
--------------------------|


Antes do refrão:

-----------------|
--6---6---6---6--|
5---5---5---5----|
-----------------|
-----------------|
-----------------|
Não presisa ser exatamente nessa ordem, pode variar um pouco(escute a música).


Depois do refrão:

F5      F#5   F5      A#5 G#5
------------------|----------------|
------------------|----------------|
--------------3b4-|----------------|
-3--3-3-4-4-------|-3--3-3/8-8-6-0-|
-3--3-3-4-4-------|-3--3-3/8-8-6-0-|
-1--0-1-2-2-------|-1--0-1/6-6-4-0-|

Solo (versão 1) :

toca duas vezes:
------------|--------------|-----------|---------------|
--4--6\----4I4b6--r4-2-1--2I1--2-------|---------------|
5-------1---|--------------|------3--1-|-3-3b4--r3-1-0-| 
------------|--------------|-----------|---------------|
------------|--------------|-----------|---------------|
------------|--------------|-----------|---------------|

tres vezes:
-----------|--------------|
-----------|--------------|
-1-0--1-0--|--1-0--1-0-0--|
-----------|------------3-|
-----------|--------------|
-----------|--------------|

na quarta vez:
   F5
-----------|--------------|---|
-----------|--------------|---|
-1-0--1-0--|--1-0--1-0----|---|
-----------|--------------|-3-|
-----------|--------------|-3-|
-----------|--------------|-1-|

Solo (versão 2):

toca 2 vezes:
------------------------------------------------|
-------------8-------------------8-6--8-8--8-6-5I
-5--5-8--10-----8-8---8-6-5-6-5-----------------|
------------------------------------------------|
------------------------------------------------|
------------------------------------------------|


toca 4 vezes:
------------------------|
------------------------|
------------------------|
-6-5--6-5--6-5--6-5-5-3~I
------------------------|
------------------------|

Letra:
Load up on guns and bring your friends
it's fun to lose and to pretend
She's over bored and self assured
oh, no, I know a dirty word

(refrão)
hello ,hello,hello,how low
hello,hello, hello,how low
hello,hello,hello,how low
hello,hello,hello.....
with the light out it's less dangerous
here, we are now, entertain us
I feel stupid and contagious
here, we are now, entertain us
A mulatto, An albino, A mosquito
My libido
Yeh!
Yay......Yay!

I'm worse at what I do best
And for this gift i feel blessed
Our little group has always been
And always will until the end

(refrão)

And I forget just why I taste
Oh yeah, I guess it makes me smile
I found it hard it's hard to find
Oh well, whatever, nevermind

(refrão)
hello ,hello,hello,how low?
hello,hello, hello,how low?
hello,hello,hello,how low?
hello,hello,hello.....
with the light out it's less dangerous
here, we are now, entertain us
I feel stupid and contagious
here, we are now, entertain us
A mulatto, An albino, A mosquito
My libido
a denial (9x)
exibições 237.962
Acordes para:
    Composição: Dave Grohl / Krist Novoselic / Kurt Cobain Colaboração e revisão:
    • Sidney Jr

    0 comentários

    mostrar mais comentários
    00:00 / 00:00
    outros vídeos desta música
    repetir qualidade Automático
    Outros vídeos desta música
    00:00 / 00:00
    Automático
    Capítulos
    • Tocando a música
    • Dicas Iniciais / Equipamentos
    • Acordes da música
    • Tocando a Introdução
    • Ritmo da Introdução
    • Tocando a Primeira Parte
    • Riff 1
    • Riff 2
    • Acordes da Passagem
    • Tocando o Refrão
    • Passagem
    • Tocando o Solo
    • Solo - Parte 1 de 2
    • Solo - Parte 2 de 2
    • Encerramento
    • Ficha Técnica
    OK