Cifra Club

Smells Like Teen Spirit

Nirvana

Cifra: Solo-v2 (violão e guitarra)
Tom: G#
Load up on guns, bring your friends

E|---------------------------------------------------------
B|----------6---6---4---2---1------------------------------
G|---5---8----1--------------------------------------------
D|---------------------------------------------------------
A|---------------------------------------------------------
E|---------------------------------------------------------

It's fun to lose, and to pretend

E|---------------------------------------------------------
B|---2---1-------------------------------------------------
G|----------3---1---3---5---3---1---0----------------------
D|---------------------------------------------------------
A|---------------------------------------------------------
E|---------------------------------------------------------

She's over-bored and self-assured

E|---------------------------------------------------------
B|----------6---4---6---4---2---1---------------------------
G|---5---8----1---------------------------------------------
D|---------------------------------------------------------
A|---------------------------------------------------------
E|---------------------------------------------------------

Oh no, I know a dirty word 

E|---------------------------------------------------------
B|---2---1-------------------------------------------------
G|----------3---1---3---5---3---1---0----------------------
D|---------------------------------------------------------
A|---------------------------------------------------------
E|---------------------------------------------------------

Hello, hello, hello, how low

E|---------------------------------------------------------
B|---------------------------------------------------------
G|---1---0---1---0---1---0---1p0---0-----------------------
D|-----------------------------------3~--------------------
A|---------------------------------------------------------
E|---------------------------------------------------------

Hello, hello, hello, how low

E|---------------------------------------------------------
B|---------------------------------------------------------
G|---1---0---1---0---1---0---1p0---0-----------------------
D|-----------------------------------3~--------------------
A|---------------------------------------------------------
E|---------------------------------------------------------

Hello, hello, hello, how low

E|---------------------------------------------------------
B|---------------------------------------------------------
G|---1---0---1---0---1---0---1p0---0-----------------------
D|-----------------------------------3~--------------------
A|---------------------------------------------------------
E|---------------------------------------------------------

Hello, hello, hello

E|---------------------------------------------------------
B|---------------------------------------------------------
G|---1---0---1---0---1---0---------------------------------
D|---------------------------------------------------------
A|---------------------------------------------------------
E|---------------------------------------------------------

With the lights out, it's less dangerous

E|---------------------------------------------------------
B|---------------------------------------------------------
G|---1---0---0-----3---3---3---1---------------------------
D|--------------3------------------------------------------
A|---------------------------------------------------------
E|---------------------------------------------------------

Here we are now, entertain us

E|---------------------------------------------------------
B|---------------------------------------------------------
G|------------------3---3---3---1--------------------------
D|---1---1---1---0-----------------------------------------
A|---------------------------------------------------------
E|---------------------------------------------------------

I feel stupid, and contagious

E|---------------------------------------------------------
B|---------------------------------------------------------
G|---1---0---0-----3---3---3---1---------------------------
D|--------------3------------------------------------------
A|---------------------------------------------------------
E|---------------------------------------------------------

Here we are now, entertain us

E|---------------------------------------------------------
B|---------------------------------------------------------
G|------------------3---3---3---1--------------------------
D|---1---1---1---0-----------------------------------------
A|---------------------------------------------------------
E|---------------------------------------------------------

A mulatto, an albino

E|---------------------------------------------------------
B|---------------------------------------------------------
G|---1---0---0-----3---3---3---1---------------------------
D|--------------3------------------------------------------
A|---------------------------------------------------------
E|---------------------------------------------------------

A mosquito, my libido 
E|---------------------------------------------------------
B|---------------------------------------------------------
G|------------------3---3---3---1--------------------------
D|---1---1---1---0-----------------------------------------
A|---------------------------------------------------------
E|---------------------------------------------------------
exibições 4.221
Acordes para:
    Composição: Dave Grohl / Krist Novoselic / Kurt Cobain Colaboração e revisão:
    • Luana Ferranti

    0 comentários

    mostrar mais comentários
    00:00 / 00:00
    outros vídeos desta música
    repetir qualidade Automático
    Outros vídeos desta música
    00:00 / 00:00
    Automático
    Capítulos
    • Tocando a música
    • Dicas Iniciais / Equipamentos
    • Acordes da música
    • Tocando a Introdução
    • Ritmo da Introdução
    • Tocando a Primeira Parte
    • Riff 1
    • Riff 2
    • Acordes da Passagem
    • Tocando o Refrão
    • Passagem
    • Tocando o Solo
    • Solo - Parte 1 de 2
    • Solo - Parte 2 de 2
    • Encerramento
    • Ficha Técnica
    OK