Cifra Club

Smells Like Teen Spirit

Nirvana

Tab de baixo: Principal
exibições 173.921
Introdução

Parte 01 de 01

G|----------------------------------------------|
D|----------------------------------------------|
A|--------------1-1-1-1/4--------4-4-4-4\-------|
E|-1/6\--1--1-1-----------4--4-4----------------|

G|----------------------------------------------|
D|----------------------------------------------|
A|--------1-1-1-1/4---------4-4-4--4-4-4--------|
E|-1--1-1-----------4--4-4----------------------|

Primeira parte

Load up on guns, bring your friends...

Parte 01 de 01 ( tocar 10x )

G|----------------------------------------------|
D|----------------------------------------------|
A|----------1-1-1-1/3---------4-4-4-3-----------|
E|-1-1-1-1------------4-4-4-4-------------------|

Refrão

Parte 01 de 02 ( tocar 6x )

G|----------------------------------------------|
D|----------------------------------------------|
A|--------1-1-1-1/4--------4-4-4-4\-------------|
E|-1--1-1-----------4--4-4----------------------|

Parte  02 de 02 ( tocar 2x )

G|----------------------------------------------|
D|----------------------------------------------|
A|-------------3-3-3-3/5------------------------|
E|-1-1-1-0-2-2-----------6-6-5-5----------------|

Segunda parte

I'm worse at what I do best...

Parte 01 de 01 ( tocar 10x )

G|----------------------------------------------|
D|----------------------------------------------|
A|----------1-1-1-1/3---------4-4-4-3-----------|
E|-1-1-1-1------------4-4-4-4-------------------|

Segundo Refrão

Refrão

Parte 01 de 02 ( tocar 6x )

G|----------------------------------------------|
D|----------------------------------------------|
A|--------1-1-1-1/4--------4-4-4-4\-------------|
E|-1--1-1-----------4--4-4----------------------|

Parte  02 de 02 ( tocar 2x )

G|----------------------------------------------|
D|----------------------------------------------|
A|-------------3-3-3-3/5------------------------|
E|-1-1-1-0-2-2-----------6-6-5-5----------------|

Solo de Guitarra

Parte 01 de 01 ( tocar 4x )

G|----------------------------------------------|
D|----------------------------------------------|
A|--------1-1-1-1/4--------4-4-4-4\-------------|
E|-1--1-1-----------4--4-4----------------------|

Terceira parte

And I forget just why I taste...

Parte 01 de 01 ( tocar 10x )

G|----------------------------------------------|
D|----------------------------------------------|
A|----------1-1-1-1/3---------4-4-4-3-----------|
E|-1-1-1-1------------4-4-4-4-------------------|

Terceiro Refrão

Parte 01 de 02 ( tocar 9x )

G|----------------------------------------------|
D|----------------------------------------------|
A|--------1-1-1-1/4--------4-4-4-4\-------------|
E|-1--1-1-----------4--4-4----------------------|

Parte 02 de 02 ( Parte Final )

G|----------------------------------------------|
D|----------------------------------------------|
A|--------1-1-1-1/4--------4-4-4-4\-------------|
E|-1--1-1-----------4--4-4-----------1----------|

0 comentários

    mostrar mais comentários
    00:00 / 00:00
    outros vídeos desta música
    repetirqualidadeautomática
    Outro vídeos desta música
      00:00 / 00:00
      automática
      OK