Cifra Club

Smells Like Teen Spirit

Nirvana

Cifra: V3 (violão e guitarra)
exibições 647.663
Tom: F
Intro:
    F5           Bb5   G#5            C#5
E|------------------------------------------|
B|------------------------------------------|
G|-------x-x-x-x-3-3-3----------------6-6-6-|   (3x)
D|-3-3-3-x-x-x-x-3-3-3-6-6-6--x-x-x-x-6-6-6-|
A|-3-3-3-x-x-x-x-1-1-1-6-6-6--x-x-x-x-4-4-4-|
E|-1-1-1---------------4-4-4--x-x-x-x-------|

   F5              Bb5     G#5              C#5
E|-------------------------------------------------|
B|-------------------------------------------------|
G|--------x-x-x-x-3-3-3----------------6-6-6-------|
D|-3-3-3--x-x-x-x-3-3-3-6-6-6--x-x-x-x-6-6-6-------|
A|-3-3-3--x-x-x-x-1-1-1-6-6-6--x-x-x-x-4-4-4-4-4-4-|
E|-1-1-1----------------4-4-4--x-x-x-x-------------|

Verso:
E|-----|
B|---6-| (4x)
G|-5---|
D|-----|
A|-----|
E|-----|
Load up on guns and bring your friends
It's fun to lose and to pretend
She's over-bored and self assured
Oh no, I know a dirty word

Ponte:
E|-----------------------------|
B|----6-----6------6-----6---6-| (4x)
G|-5-----5-----5------5----5---|
D|-----------------------------|
A|-----------------------------|
E|-----------------------------|
Hello, hello, hello, how low
Hello, hello, hello, how low
Hello, hello, hello, how low
Hello, hello, hello

Refrão:
    F5           Bb5   G#5            C#5
E|------------------------------------------|
B|------------------------------------------|
G|-------x-x-x-x-3-3-3----------------6-6-6-|   (6x)
D|-3-3-3-x-x-x-x-3-3-3-6-6-6--x-x-x-x-6-6-6-|
A|-3-3-3-x-x-x-x-1-1-1-6-6-6--x-x-x-x-4-4-4-|
E|-1-1-1---------------4-4-4--x-x-x-x-------|
With the lights out, it's less dangerous
Here we are now, entertain us
I fell stupid, and contagious
Here we are now, entertain us
A mulatto, an albino
A mosquito, my libido, yeah
   F5  E5 F5 F#5     F5  E5 F5 A#5 G#5  F5  E5 F5 F#5     F5  E5 F5 A#5 G#5
E|------------------------------------|------------------------------------|
B|------------------------------------|------------------------------------|
G|---------------4b-------------------|---------------4b-------------------|
D|-3-3--2-3--4-4-----3-3--2-3--8-8--6-|-3-3--2-3--4-4-----3-3--2-3--8-8--6-|
A|-3-3--2-3--4-4-----3-3--2-3--8-8--6-|-3-3--2-3--4-4-----3-3--2-3--8-8--6-|
E|-1-1--0-1--2-2-----1-1--0-1--6-6--4-|-1-1--0-1--2-2-----1-1--0-1--6-6--4-|
                Yay!                                 Yay!

Verso:
E|-----|
B|---6-| (4x)
G|-5---|
D|-----|
A|-----|
E|-----|
I'm worse at what I do best
And for this gift I feel blessed
Our little group has always been
And always will until the end

Refrão:
    F5           Bb5   G#5            C#5
E|------------------------------------------|
B|------------------------------------------|
G|-------x-x-x-x-3-3-3----------------6-6-6-|   (6x)
D|-3-3-3-x-x-x-x-3-3-3-6-6-6--x-x-x-x-6-6-6-|
A|-3-3-3-x-x-x-x-1-1-1-6-6-6--x-x-x-x-4-4-4-|
E|-1-1-1---------------4-4-4--x-x-x-x-------|
With the lights out, it's less dangerous
Here we are now, entertain us
I fell stupid, and contagious
Here we are now, entertain us
A mulatto, an albino
A mosquito, my libido, yeah
   F5  E5 F5 F#5     F5  E5 F5 A#5 G#5  F5  E5 F5 F#5     F5  E5 F5 A#5 G#5
E|------------------------------------|------------------------------------|
B|------------------------------------|------------------------------------|
G|---------------4b-------------------|---------------4b-------------------|
D|-3-3--2-3--4-4-----3-3--2-3--8-8--6-|-3-3--2-3--4-4-----3-3--2-3--8-8--6-|
A|-3-3--2-3--4-4-----3-3--2-3--8-8--6-|-3-3--2-3--4-4-----3-3--2-3--8-8--6-|
E|-1-1--0-1--2-2-----1-1--0-1--6-6--4-|-1-1--0-1--2-2-----1-1--0-1--6-6--4-|
                Yay!                                 Yay!

Solo:
E|--------------|---------------|-------------|-------------|
B|--------------|---------------|-------------|-------------|
G|-----8h10-----|-8-8^----6--5--|-6--5--------|-------------|
D|-10--------6--|---------------|-------8-6-8-|-8^----6--5--|
A|--------------|---------------|-------------|-------------|
E|--------------|---------------|-------------|-------------|

E|--------------|---------------|-------------|-------------|
B|--------------|---------------|-------------|-------------|
G|-----8h10-----|-8-8^----6--5--|-6--5--------|-------------|
D|-10--------6--|---------------|-------8-6-8-|-8^----6--5--|
A|--------------|---------------|-------------|-------------|
E|--------------|---------------|-------------|-------------|

E|-------------|--------------|-------------|--------------|
B|-------------|--------------|-------------|--------------|
G|-------------|--------------|-------------|--------------|
D|-6--5--6--5--|-6--5--6/5----|-6--5--6--5--|-6--5--6/5----|
A|-------------|-----------8--|-------------|-----------8~~|
E|-------------|--------------|-------------|--------------|

And I forget just what I taste
Oh yeah, I guess it makes me smile
I found it hard, it's hard to find
Oh well, whatever, never mind

Refrão:
   F5           Bb5   G#5            C#5
E|------------------------------------------|
B|------------------------------------------|
G|-------x-x-x-x-3-3-3----------------6-6-6-|   (6x)
D|-3-3-3-x-x-x-x-3-3-3-6-6-6--x-x-x-x-6-6-6-|
A|-3-3-3-x-x-x-x-1-1-1-6-6-6--x-x-x-x-4-4-4-|
E|-1-1-1---------------4-4-4--x-x-x-x-------|
With the lights out, it's less dangerous
Here we are now, entertain us
I fell stupid, and contagious
Here we are now, entertain us
A mulatto, an albino
A mosquito, my libido, yeah

F5
A denial

0 comentários

mostrar mais comentários
00:00 / 00:00
outros vídeos desta música
repetir qualidade Automático
Outros vídeos desta música
00:00 / 00:00
Automático
Capítulos
  • Tocando a música
  • Dicas Iniciais / Equipamentos
  • Acordes da música
  • Tocando a Introdução
  • Ritmo da Introdução
  • Tocando a Primeira Parte
  • Riff 1
  • Riff 2
  • Acordes da Passagem
  • Tocando o Refrão
  • Passagem
  • Tocando o Solo
  • Solo - Parte 1 de 2
  • Solo - Parte 2 de 2
  • Encerramento
  • Ficha Técnica
OK