Talk To Me

Nirvana

Composição de: Kurt Cobain
Verse
1 ----------------------------------------------------
2 ----------------------------------------------------
3 -------2--2--3--3------------------1--1--1----1--0--
4 -3--3----------------3--\1----1---------------------

1 ------------------------
2 ------------------------
3 ------------3--3--3--0--
4 -3----3--3--------------


_______________________________________________________
Contribuição: Lucas Araujo Carvalho(wakko@liquid2k.com)
Página 1 / 1

Letras e título
Acordes e artista

resetar configurações
OK