Enviar cifraEntrar

Cristo, Filho do Deus Vivo

Nívea Soares

Cifra: Principal
exibições 341.348
Tom: E
Intro : C#m7   E   A   F#m
       (C#m7   E   A   F#m)


A parte do teclado, pode fazer na guitarra assim:


E|-------------------------------------------------|
A|-------------------------------------------------|
D|-------------9---------11------------------------|
G|---9--8--6-------9--11---------------------------|
B|-------------------------------------------------|
E|-------------------------------------------------|


             C#m              E               A
E|-------------------------------------------------------------|
B|---5-5-5-4-4-5-5-5--9-9-9-9-9-9-9-9-14-14-14-12-12-14-14-14--|
G|---6-6-6-6-6-6-6-6--9-9-9-9-9-9-9-9-14-14-14-14-14-14-14-14--|
D|---6-6-6-6-6-6-6-6--9-9-9-9-9-9-9-9-14-14-14-14-14-14-14-14--|
A|-------------------------------------------------------------|
E|-------------------------------------------------------------|


            F#m
E|--14-14-14-14-14-14-14-14-------------------|
B|--14-14-14-14-14-14-14-14-------------------|
G|--11-11-11-11-11-11-11-11-------------------|
D|--------------------------------------------|
A|--------------------------------------------|
E|--------------------------------------------|


Verso:

Toque 16 vezes cada nota:



E|-------------------------------------------------------------|
B|-------------------------------------------------------------|
G|---6--------9---------14--14---------------------------------|
D|-------------------------------------------------------------|
A|-------------------------------------------------------------|
E|-------------------------------------------------------------|


Mesma coisa:



E|-------------------------------------------------------------|
B|-------------------------------------------------------------|
G|---6--------9---------14--14---------------------------------|
D|-------------------------------------------------------------|
A|-------------------------------------------------------------|
E|-------------------------------------------------------------|


Toque essa parte com o harmônico natural (H):


     H       H  H

P.M------------------------------------------------------------|
E|--12--11--12-12----------------------------------------------|
B|-------------------------------------------------------------|
G|-------------------------------------------------------------|
D|-------------------------------------------------------------|
A|-------------------------------------------------------------|
E|-------------------------------------------------------------|


x2

Ponte:


E|--------------------19---------------------------------------|
B|-----14----17------------------------------------------------|
G|-------------------------------------------------------------|
D|-------------------------------------------------------------|
A|-------------------------------------------------------------|
E|-------------------------------------------------------------|


X2

Solo:


E|-------12-------12----12--------16-------16----16-------|
B|-14-14----14-14----14-----14s17----17-17----17----------|
G|--------------------------------------------------------|
D|--------------------------------------------------------|
A|--------------------------------------------------------|
E|--------------------------------------------------------|


E|--------------------------------------------------------|
B|-------14-------14----14-------14-------14----14--------|
G|-14-14----14-14----14----11-11----11-11----11-----------|
D|--------------------------------------------------------|
A|--------------------------------------------------------|
E|--------------------------------------------------------|


X2

 C#m7                    E                 A            F#m
 Verbo vivo, viveu entre nós, o Filho do Homem, o filho de Deus
               C#m7              E           A                 F#m
 Curando os enfermos, livrando cativos, era chegado o reino de Deus
          C#m7        E            A             F#m
 Foi humilhado, crucificado, tão rejeitado pelos seus
         C#m7         E       A                 F#m
 Ressuscitado, glorificado, o inferno e a morte venceu

     E                    B9
 E agora quem dizem que tú és?
       A      C#m7          B9
 Um profeta um agitador qualquer
        E                    B9
 Teu Espírito me revela quem Tu és
      A9    C#m7 B9
 O Ungido de Deus

          C#m7                  E
 Tu és o Cristo, filho do Deus Vivo
             A                  F#m
 Sobre esta rocha, tua igreja está
          C#m7                  E
 Tu és o Cristo, filho do Deus Vivo
             A                     F#m
 Rocha inabalável, outro igual não há,
           C#m7  E  A  F#m
 Igual não há.


Espontâneo : C#m7  E  A

END : C#m7  E  A  F#m (2x)
  • 1
  • 2
  • 3
  • 4
  • 5
  • 6
  • 7
  • 8
  • 9
  • 10
  • 11
  • 12
    Acordes para:

      0 comentários

        mostrar mais comentários

        Conseguiu tocar?

        13tocaram1ainda não

        Grave um vídeo tocando Cristo, Filho do Deus Vivo e mande pra gente!

        00:00 / 00:00
        outros vídeos desta música
        repetirqualidadeautomática
        • automática
        Outro vídeos desta música
          00:00 / 00:00
          automática
          • automática
          Acordes para:violão e guitarra
          dificuldadeexibiçõescontribuições
          1 versão de Tab de baixoexibiçõescontribuições
          fecharplay/pause subir/descer velocidade
            acordes
            fechar
            OK
            Feedback