Cifra Club

Fan The Fire

Nívea Soares

Tab de baixo: Principal
G-------------------------------------------
D-------------------------------------------
A------------------9h10h11-9-9-9------------
E---/9-9-9-12-12-12--------------12-12-12-9-


G-------------------------------------------
D--------------------------9-9-9------------
A------------------9h10h11-------9-9-9------
E---/9-9-9-12-12-12-------------------12-9--
exibições 4.431
Composição: Nívea Soares Colaboração e revisão:
  • Donato Chella

0 comentários

mostrar mais comentários

Conseguiu tocar?

0 tocaram 0 ainda não

Grave um vídeo tocando Fan The Fire e mande pra gente!

00:00 / 00:00
outros vídeos desta música
repetir qualidade Automático
Outros vídeos desta música
00:00 / 00:00
Automático
OK