Cifra Club

Aprenda

Filho do Deus Vivo

Nívea Soares

Cifra: Dvd-honra-e-gloria (violão e guitarra)
Tom: E
    C#m      E     F#m        A
E|---------------------------------|
B|--5-------9-9-----10--------2----|
G|---6-------9--------11-------2---|
D|-----6----------------11------2--|
A|---------------------------------|
E|---------------------------------|


E|----------------------------------------------------------|
B|---10/12-9---10/12----9-10-10/17--------10-9----10-9-10-9-|
G|-9---------9-------11------------14-----------------------| 2x
D|--------------------------------------11-----11-----------|
A|----------------------------------------------------------|
E|----------------------------------------------------------|

E|---------0--0--0---0-0-0-0--0-0-0----------0--0--0--0-0-0-0-|
B|---10/12-12-12-12--9-9-9-9--7-9-7----10/12-12-12-12-9-9-9-9-|
G|-9---------------------------------9------------------------|
D|------------------------------------------------------------|
A|------------------------------------------------------------|
E|------------------------------------------------------------|\
                                                                 4x
E|------------------------------------------------------------|/
B|-7-7-9-9-10-10-10/17-17-17-----------10-9----10-9----10-0---|
G|---------------------------14-14-14-------11------11--------|
D|------------------------------------------------------------|
A|------------------------------------------------------------|
E|------------------------------------------------------------|

Intro : C#m E A F#m
       (C#m E A F#m)

    C#m    E    A    F#m
E|------------------------|
B|------------------------|
G|-6------9----14---11----|  intro notas oitavadas
D|------------------------|
A|-4------7----12---9-----|
E|------------------------|

E|-----------|-------------12-12-11-11-12-|-----------|-----------|
B|-----------|----------------------------|-----------|-----------|
G|-6--9--14--|-6--9---14------------------|-6--9--14--|-6--9--14--|
D|-----------|----------------------------|-----------|-----------|
A|-----------|----------------------------|-----------|-----------|
E|-----------|----------------------------|-----------|-----------|

      C#m               E
Verbo vivo viveu entre nós
          A
Filho do homem , filho de Deus
               C#m                   E
Curando os enfermos ,livrando o cativo
        A
Era chegado o reino de Deus

      C#m                 E
Foi humilhado , crucificado
          A
Tão rejeitado pelos seus
        C#m            E
Ressucitado ,Glorificado
     A
O inferno e a morte venceu

    E                        B
E agora que dizem quem Tu és
       A           C#m          B
Um profeta, um agitador qualquer
       E                          B
Teu Espírito me revela quem Tu és
   A      C#m    B
Ungido de Deus ,

         C#m                   E
Tú és o Cristo , filho do Deus vivo
             A9                 F#m7
Sobre esta rocha Tua igreja está
          C#m                  E
Tú és o Cristo , filho do Deus vivo
            A9                  F#m7
Rocha inabalável , outro igual não há
Igual não há

Espontaneo : C#m E A9

E|------------------------|
B|---------22----------22-|
G|-18--21------18--21-----|
D|------------------------|
A|------------------------|
E|------------------------|

E|-------12----12--------16----16---------------------------------|
B|-14-14----14-----17-17----17-----------14----14-----------------|
G|---------------------------------14-14----14-----------11----11-|
D|-------------------------------------------------11-11----11----| 2x
A|----------------------------------------------------------------|
E|----------------------------------------------------------------|

Final 2x: C#m E A F#m

    C#m    E    A    F#m
E|------------------------|
B|------------------------|
G|-6------9----14---11----|  intro notas oitavadas
D|------------------------|
A|-4------7----12---9-----|
E|------------------------|


E|-----------|-------------12-12-11-11-12-|
B|-----------|----------------------------|
G|-6--9--14--|-6--9---14------------------|
D|-----------|----------------------------|
A|-----------|----------------------------|
E|-----------|----------------------------|
Composição de Nívea Soares
Colaboração e revisão:
  • Alexandre Menegare
9.342 exibições
    • ½ Tom
    • A
    • Bb
    • B
    • C
    • Db
    • D
    • Eb
    • E
    • F
    • F#
    • G
    • Ab
  • Adicionar à lista

    0 comentários

    Mostrar mais comentários
    00:00 / 00:00
    outros vídeos desta música
    repetir qualidade Automático
    Outros vídeos desta música
    00:00 / 00:00
    Automático

    Cifra Club Pro

    Aproveite o Cifra Club com benefícios exclusivos e sem anúncios
    7 dias grátis
    Cifra Club Pro
    Aproveite o Cifra Club com benefícios exclusivos e sem anúncios
    7 dias grátis
    OK